  0
SECTION
  2
HEADER
  9
$ACADVER
  1
AC1009
  9
$INSBASE
 10
7.125
 20
11.375
 30
0.0
  9
$EXTMIN
 10
-14.024315
 20
-5.720484
 30
-0.020822
  9
$EXTMAX
 10
18.350541
 20
26.873775
 30
18.75
  9
$LIMMIN
 10
0.0
 20
0.0
  9
$LIMMAX
 10
1241.5
 20
899.0
  9
$ORTHOMODE
 70
     0
  9
$REGENMODE
 70
     1
  9
$FILLMODE
 70
     1
  9
$QTEXTMODE
 70
     0
  9
$MIRRTEXT
 70
     1
  9
$DRAGMODE
 70
     2
  9
$LTSCALE
 40
96.0
  9
$OSMODE
 70
     0
  9
$ATTMODE
 70
     1
  9
$TEXTSIZE
 40
0.2
  9
$TRACEWID
 40
0.05
  9
$TEXTSTYLE
  7
STANDARD
  9
$CLAYER
  8
0
  9
$CELTYPE
  6
BYLAYER
  9
$CECOLOR
 62
   256
  9
$DIMSCALE
 40
96.0
  9
$DIMASZ
 40
0.18
  9
$DIMEXO
 40
0.0625
  9
$DIMDLI
 40
0.38
  9
$DIMRND
 40
0.0
  9
$DIMDLE
 40
0.0
  9
$DIMEXE
 40
0.18
  9
$DIMTP
 40
0.0
  9
$DIMTM
 40
0.0
  9
$DIMTXT
 40
0.18
  9
$DIMCEN
 40
0.09
  9
$DIMTSZ
 40
0.0
  9
$DIMTOL
 70
     0
  9
$DIMLIM
 70
     0
  9
$DIMTIH
 70
     1
  9
$DIMTOH
 70
     1
  9
$DIMSE1
 70
     0
  9
$DIMSE2
 70
     0
  9
$DIMTAD
 70
     0
  9
$DIMZIN
 70
     0
  9
$DIMBLK
  1

  9
$DIMASO
 70
     1
  9
$DIMSHO
 70
     1
  9
$DIMPOST
  1

  9
$DIMAPOST
  1

  9
$DIMALT
 70
     0
  9
$DIMALTD
 70
     2
  9
$DIMALTF
 40
25.4
  9
$DIMLFAC
 40
1.0
  9
$DIMTOFL
 70
     0
  9
$DIMTVP
 40
0.0
  9
$DIMTIX
 70
     0
  9
$DIMSOXD
 70
     0
  9
$DIMSAH
 70
     0
  9
$DIMBLK1
  1

  9
$DIMBLK2
  1

  9
$DIMSTYLE
  2
*UNNAMED
  9
$DIMCLRD
 70
     0
  9
$DIMCLRE
 70
     0
  9
$DIMCLRT
 70
     0
  9
$DIMTFAC
 40
1.0
  9
$DIMGAP
 40
0.09
  9
$LUNITS
 70
     2
  9
$LUPREC
 70
     4
  9
$SKETCHINC
 40
0.1
  9
$FILLETRAD
 40
0.0
  9
$AUNITS
 70
     3
  9
$AUPREC
 70
     0
  9
$MENU
  1
acad
  9
$ELEVATION
 40
0.0
  9
$PELEVATION
 40
0.0
  9
$THICKNESS
 40
0.0
  9
$LIMCHECK
 70
     0
  9
$BLIPMODE
 70
     1
  9
$CHAMFERA
 40
0.0
  9
$CHAMFERB
 40
0.0
  9
$SKPOLY
 70
     0
  9
$TDCREATE
 40
2449241.015632754
  9
$TDUPDATE
 40
2449305.667801157
  9
$TDINDWG
 40
0.0001341435
  9
$TDUSRTIMER
 40
0.0001341435
  9
$USRTIMER
 70
     1
  9
$ANGBASE
 50
0.0
  9
$ANGDIR
 70
     0
  9
$PDMODE
 70
     0
  9
$PDSIZE
 40
0.0
  9
$PLINEWID
 40
0.0
  9
$COORDS
 70
     2
  9
$SPLFRAME
 70
     1
  9
$SPLINETYPE
 70
     6
  9
$SPLINESEGS
 70
     8
  9
$ATTDIA
 70
     0
  9
$ATTREQ
 70
     1
  9
$HANDLING
 70
     1
  9
$HANDSEED
  5
1B89
  9
$SURFTAB1
 70
     6
  9
$SURFTAB2
 70
     6
  9
$SURFTYPE
 70
     6
  9
$SURFU
 70
     6
  9
$SURFV
 70
     6
  9
$UCSNAME
  2

  9
$UCSORG
 10
0.0
 20
0.0
 30
0.0
  9
$UCSXDIR
 10
1.0
 20
0.0
 30
0.0
  9
$UCSYDIR
 10
0.0
 20
1.0
 30
0.0
  9
$PUCSNAME
  2

  9
$PUCSORG
 10
0.0
 20
0.0
 30
0.0
  9
$PUCSXDIR
 10
1.0
 20
0.0
 30
0.0
  9
$PUCSYDIR
 10
0.0
 20
1.0
 30
0.0
  9
$USERI1
 70
     0
  9
$USERI2
 70
     0
  9
$USERI3
 70
     0
  9
$USERI4
 70
     0
  9
$USERI5
 70
     0
  9
$USERR1
 40
0.0
  9
$USERR2
 40
0.0
  9
$USERR3
 40
0.0
  9
$USERR4
 40
0.0
  9
$USERR5
 40
0.0
  9
$WORLDVIEW
 70
     1
  9
$SHADEDGE
 70
     3
  9
$SHADEDIF
 70
    70
  9
$TILEMODE
 70
     1
  9
$MAXACTVP
 70
    16
  9
$PINSBASE
 10
0.0
 20
0.0
 30
0.0
  9
$PLIMCHECK
 70
     0
  9
$PEXTMIN
 10
1.000000E+20
 20
1.000000E+20
 30
1.000000E+20
  9
$PEXTMAX
 10
-1.000000E+20
 20
-1.000000E+20
 30
-1.000000E+20
  9
$PLIMMIN
 10
0.0
 20
0.0
  9
$PLIMMAX
 10
12.0
 20
9.0
  9
$UNITMODE
 70
     0
  9
$VISRETAIN
 70
     0
  9
$PLINEGEN
 70
     0
  9
$PSLTSCALE
 70
     0
  9
$TREEDEPTH
 70
  3020
  9
$DWGCODEPAGE
  3
undefined
  0
ENDSEC
  0
SECTION
  2
TABLES
  0
TABLE
  2
VPORT
 70
     2
  0
VPORT
  2
*ACTIVE
 70
     0
 10
0.0
 20
0.0
 11
1.0
 21
1.0
 12
11.486062
 22
2.44517
 13
0.0
 23
0.0
 14
0.125
 24
0.125
 15
120.0
 25
120.0
 16
1.0
 26
1.0
 36
1.0
 17
0.0
 27
0.0
 37
0.0
 40
41.849842
 41
1.36234
 42
50.0
 43
0.0
 44
0.0
 50
0.0
 51
0.0
 71
     0
 72
   100
 73
     1
 74
     0
 75
     0
 76
     0
 77
     0
 78
     0
  0
ENDTAB
  0
TABLE
  2
LTYPE
 70
     1
  0
LTYPE
  2
CONTINUOUS
 70
    64
  3
Solid line
 72
    65
 73
     0
 40
0.0
  0
ENDTAB
  0
TABLE
  2
LAYER
 70
    11
  0
LAYER
  2
0
 70
    64
 62
     7
  6
CONTINUOUS
  0
LAYER
  2
11COM09-MAIN
 70
    64
 62
     6
  6
CONTINUOUS
  0
LAYER
  2
11COM09-SCREEN
 70
    64
 62
   250
  6
CONTINUOUS
  0
LAYER
  2
11COM09-KEYS
 70
    64
 62
   253
  6
CONTINUOUS
  0
LAYER
  2
11COM09-LIGHTS1
 70
    64
 62
     3
  6
CONTINUOUS
  0
LAYER
  2
11COM09-LIGHTS2
 70
    64
 62
     2
  6
CONTINUOUS
  0
LAYER
  2
11COM09-LIGHTS3
 70
    64
 62
     1
  6
CONTINUOUS
  0
LAYER
  2
11COM09-LOCK
 70
    64
 62
   254
  6
CONTINUOUS
  0
LAYER
  2
11COM09-DARK
 70
    64
 62
     8
  6
CONTINUOUS
  0
LAYER
  2
11COM09-BODYLINES
 70
    64
 62
     9
  6
CONTINUOUS
  0
LAYER
  2
11COM09-BUTTON
 70
    64
 62
   252
  6
CONTINUOUS
  0
ENDTAB
  0
TABLE
  2
STYLE
 70
     1
  0
STYLE
  2
STANDARD
 70
     0
 40
0.0
 41
1.0
 50
0.0
 71
     0
 42
0.2
  3
txt
  4

  0
ENDTAB
  0
TABLE
  2
VIEW
 70
     0
  0
ENDTAB
  0
TABLE
  2
UCS
 70
     0
  0
ENDTAB
  0
TABLE
  2
APPID
 70
     1
  0
APPID
  2
ACAD
 70
    64
  0
ENDTAB
  0
TABLE
  2
DIMSTYLE
 70
     0
  0
ENDTAB
  0
ENDSEC
  0
SECTION
  2
BLOCKS
  0
BLOCK
  8
0
  5
1
  2
BASE
 70
    64
 10
0.0
 20
0.0
 30
0.0
  3
BASE
  0
3DFACE
  8
0
  5
2
 10
3.38041
 20
2.373148
 30
0.0
 11
7.547187
 21
2.373148
 31
0.0
 12
6.195387
 22
1.813214
 32
0.0
 13
4.73221
 23
1.813214
 33
0.0
 70
     1
  0
3DFACE
  8
0
  5
3
 10
8.581809
 20
3.407771
 30
0.0
 11
2.345787
 21
3.407771
 31
0.0
 12
3.38041
 22
2.373148
 32
0.0
 13
7.547187
 23
2.373148
 33
0.0
 70
     5
  0
3DFACE
  8
0
  5
4
 10
1.785854
 20
4.75957
 30
0.0
 11
9.141743
 21
4.75957
 31
0.0
 12
8.581809
 22
3.407771
 32
0.0
 13
2.345787
 23
3.407771
 33
0.0
 70
     5
  0
3DFACE
  8
0
  5
5
 10
9.141743
 20
6.222748
 30
0.0
 11
1.785854
 21
6.222748
 31
0.0
 12
1.785854
 22
4.75957
 32
0.0
 13
9.141743
 23
4.75957
 33
0.0
 70
     5
  0
3DFACE
  8
0
  5
6
 10
2.345787
 20
7.574547
 30
0.0
 11
8.581809
 21
7.574547
 31
0.0
 12
9.141743
 22
6.222748
 32
0.0
 13
1.785854
 23
6.222748
 33
0.0
 70
     5
  0
3DFACE
  8
0
  5
7
 10
7.547187
 20
8.60917
 30
0.0
 11
3.38041
 21
8.60917
 31
0.0
 12
2.345787
 22
7.574547
 32
0.0
 13
8.581809
 23
7.574547
 33
0.0
 70
     5
  0
3DFACE
  8
0
  5
8
 10
4.73221
 20
9.169104
 30
0.0
 11
6.195387
 21
9.169104
 31
0.0
 12
7.547187
 22
8.60917
 32
0.0
 13
3.38041
 23
8.60917
 33
0.0
 70
     4
  0
3DFACE
  8
0
  5
9
 10
3.031225
 20
7.231047
 30
0.700134
 11
2.737595
 21
7.36994
 31
1.420891
 12
3.628191
 22
8.266613
 32
1.52511
 13
3.853314
 23
8.058745
 33
0.796336
  0
3DFACE
  8
0
  5
A
 10
2.255608
 20
6.19838
 30
1.364488
 11
2.586314
 21
6.149608
 31
0.64807
 12
3.031225
 22
7.231047
 32
0.700134
 13
2.737595
 23
7.36994
 33
1.420891
  0
3DFACE
  8
0
  5
B
 10
2.586314
 20
4.979066
 30
0.64807
 11
2.255608
 21
4.930293
 31
1.364488
 12
2.255608
 22
6.19838
 32
1.364488
 13
2.586314
 23
6.149608
 33
0.64807
  0
3DFACE
  8
0
  5
C
 10
2.737595
 20
3.758733
 30
1.420891
 11
3.031225
 21
3.897626
 31
0.700134
 12
2.586314
 22
4.979066
 32
0.64807
 13
2.255608
 23
4.930293
 33
1.364488
  0
3DFACE
  8
0
  5
D
 10
3.853314
 20
3.069928
 30
0.796336
 11
3.628191
 21
2.86206
 31
1.52511
 12
2.737595
 22
3.758733
 32
1.420891
 13
3.031225
 23
3.897626
 33
0.700134
  0
3DFACE
  8
0
  5
E
 10
4.791811
 20
2.376784
 30
1.661279
 11
4.927424
 21
2.621981
 31
0.92203
 12
3.853314
 22
3.069928
 32
0.796336
 13
3.628191
 23
2.86206
 33
1.52511
  0
3DFACE
  8
0
  5
F
 10
6.090033
 20
2.621981
 30
1.058081
 11
6.051303
 21
2.376784
 31
1.808667
 12
4.791811
 22
2.376784
 32
1.661279
 13
4.927424
 23
2.621981
 33
0.92203
  0
3DFACE
  8
0
  5
10
 10
7.214923
 20
2.86206
 30
1.944835
 11
7.164143
 21
3.069928
 31
1.183775
 12
6.090033
 22
2.621981
 32
1.058081
 13
6.051303
 23
2.376784
 33
1.808667
  0
3DFACE
  8
0
  5
11
 10
7.986231
 20
3.897626
 30
1.279977
 11
8.105518
 21
3.758733
 31
2.049054
 12
7.214923
 22
2.86206
 32
1.944835
 13
7.164143
 23
3.069928
 33
1.183775
  0
3DFACE
  8
0
  5
12
 10
8.587505
 20
4.930293
 30
2.105457
 11
8.431142
 21
4.979066
 31
1.332042
 12
7.986231
 22
3.897626
 32
1.279977
 13
8.105518
 23
3.758733
 33
2.049054
  0
3DFACE
  8
0
  5
13
 10
8.431142
 20
6.149608
 30
1.332042
 11
8.587505
 21
6.19838
 31
2.105457
 12
8.587505
 22
4.930293
 32
2.105457
 13
8.431142
 23
4.979066
 33
1.332042
  0
3DFACE
  8
0
  5
14
 10
8.105518
 20
7.36994
 30
2.049054
 11
7.986231
 21
7.231047
 31
1.279977
 12
8.431142
 22
6.149608
 32
1.332042
 13
8.587505
 23
6.19838
 33
2.105457
  0
3DFACE
  8
0
  5
15
 10
7.164143
 20
8.058745
 30
1.183775
 11
7.214923
 21
8.266613
 31
1.944835
 12
8.105518
 22
7.36994
 32
2.049054
 13
7.986231
 23
7.231047
 33
1.279977
  0
3DFACE
  8
0
  5
16
 10
6.051303
 20
8.751889
 30
1.808667
 11
6.090033
 21
8.506692
 31
1.058081
 12
7.164143
 22
8.058745
 32
1.183775
 13
7.214923
 23
8.266613
 33
1.944835
  0
3DFACE
  8
0
  5
17
 10
4.927424
 20
8.506692
 30
0.92203
 11
4.791811
 21
8.751889
 31
1.661279
 12
6.051303
 22
8.751889
 32
1.808667
 13
6.090033
 23
8.506692
 33
1.058081
  0
3DFACE
  8
0
  5
18
 10
3.628191
 20
8.266613
 30
1.52511
 11
3.853314
 21
8.058745
 31
0.796336
 12
4.927424
 22
8.506692
 32
0.92203
 13
4.791811
 23
8.751889
 33
1.661279
  0
POLYLINE
  8
0
  5
19
 66
     1
 10
0.0
 20
0.0
 30
0.343074
 70
     1
210
-0.1162285958854154
220
0.0
230
0.9932224894244516
  0
VERTEX
  8
0
  5
1A
 10
-8.506692
 20
5.001195
 30
0.343074
  0
VERTEX
  8
0
  5
1B
 10
-8.058745
 20
3.919755
 30
0.343074
  0
VERTEX
  8
0
  5
1C
 10
-7.231047
 20
3.092057
 30
0.343074
  0
VERTEX
  8
0
  5
1D
 10
-6.149608
 20
2.64411
 30
0.343074
  0
VERTEX
  8
0
  5
1E
 10
-4.979066
 20
2.64411
 30
0.343074
  0
VERTEX
  8
0
  5
1F
 10
-3.897626
 20
3.092057
 30
0.343074
  0
VERTEX
  8
0
  5
20
 10
-3.069928
 20
3.919755
 30
0.343074
  0
VERTEX
  8
0
  5
21
 10
-2.621981
 20
5.001195
 30
0.343074
  0
VERTEX
  8
0
  5
22
 10
-2.621981
 20
6.171737
 30
0.343074
  0
VERTEX
  8
0
  5
23
 10
-3.069928
 20
7.253176
 30
0.343074
  0
VERTEX
  8
0
  5
24
 10
-3.897626
 20
8.080874
 30
0.343074
  0
VERTEX
  8
0
  5
25
 10
-4.979066
 20
8.528821
 30
0.343074
  0
VERTEX
  8
0
  5
26
 10
-6.149608
 20
8.528821
 30
0.343074
  0
VERTEX
  8
0
  5
27
 10
-7.231047
 20
8.080874
 30
0.343074
  0
VERTEX
  8
0
  5
28
 10
-8.058745
 20
7.253176
 30
0.343074
  0
VERTEX
  8
0
  5
29
 10
-8.506692
 20
6.171737
 30
0.343074
  0
SEQEND
  8
0
  5
2A
  0
POLYLINE
  8
0
  5
2B
 66
     1
 10
0.0
 20
0.0
 30
1.093074
 70
     1
210
-0.1162285958854154
220
0.0
230
0.9932224894244516
  0
VERTEX
  8
0
  5
2C
 10
-8.751889
 20
4.952422
 30
1.093074
  0
VERTEX
  8
0
  5
2D
 10
-8.266613
 20
3.780862
 30
1.093074
  0
VERTEX
  8
0
  5
2E
 10
-7.36994
 20
2.884189
 30
1.093074
  0
VERTEX
  8
0
  5
2F
 10
-6.19838
 20
2.398913
 30
1.093074
  0
VERTEX
  8
0
  5
30
 10
-4.930293
 20
2.398913
 30
1.093074
  0
VERTEX
  8
0
  5
31
 10
-3.758733
 20
2.884189
 30
1.093074
  0
VERTEX
  8
0
  5
32
 10
-2.86206
 20
3.780862
 30
1.093074
  0
VERTEX
  8
0
  5
33
 10
-2.376784
 20
4.952422
 30
1.093074
  0
VERTEX
  8
0
  5
34
 10
-2.376784
 20
6.220509
 30
1.093074
  0
VERTEX
  8
0
  5
35
 10
-2.86206
 20
7.392069
 30
1.093074
  0
VERTEX
  8
0
  5
36
 10
-3.758733
 20
8.288742
 30
1.093074
  0
VERTEX
  8
0
  5
37
 10
-4.930293
 20
8.774018
 30
1.093074
  0
VERTEX
  8
0
  5
38
 10
-6.19838
 20
8.774018
 30
1.093074
  0
VERTEX
  8
0
  5
39
 10
-7.36994
 20
8.288742
 30
1.093074
  0
VERTEX
  8
0
  5
3A
 10
-8.266613
 20
7.392069
 30
1.093074
  0
VERTEX
  8
0
  5
3B
 10
-8.751889
 20
6.220509
 30
1.093074
  0
SEQEND
  8
0
  5
3C
  0
3DFACE
  8
0
  5
3D
 10
0.203798
 20
10.991159
 30
0.5
 11
5.458628
 21
5.484757
 31
1.0
 12
5.458628
 22
5.484757
 32
1.0
 13
5.458628
 23
5.484757
 33
1.0
  0
3DFACE
  8
0
  5
3E
 10
5.458628
 20
5.484757
 30
1.0
 11
-0.036202
 21
10.751159
 31
0.5
 12
0.203798
 22
10.991159
 32
0.5
 13
5.458628
 23
5.484757
 33
1.0
  0
3DFACE
  8
0
  5
3F
 10
-0.036202
 20
0.231159
 30
0.5
 11
5.458628
 21
5.484757
 31
1.0
 12
5.458628
 22
5.484757
 32
1.0
 13
-0.036202
 23
10.751159
 33
0.5
  0
3DFACE
  8
0
  5
40
 10
5.458628
 20
5.484757
 30
1.0
 11
0.203798
 21
-0.008841
 31
0.5
 12
-0.036202
 22
0.231159
 32
0.5
 13
5.458628
 23
5.484757
 33
1.0
  0
3DFACE
  8
0
  5
41
 10
10.723798
 20
-0.008841
 30
0.5
 11
5.458628
 21
5.484757
 31
1.0
 12
5.458628
 22
5.484757
 32
1.0
 13
0.203798
 23
-0.008841
 33
0.5
  0
3DFACE
  8
0
  5
42
 10
5.458628
 20
5.484757
 30
1.0
 11
10.963798
 21
0.231159
 31
0.5
 12
10.723798
 22
-0.008841
 32
0.5
 13
5.458628
 23
5.484757
 33
1.0
  0
3DFACE
  8
0
  5
43
 10
10.963798
 20
10.751159
 30
0.5
 11
5.458628
 21
5.484757
 31
1.0
 12
5.458628
 22
5.484757
 32
1.0
 13
10.963798
 23
0.231159
 33
0.5
  0
3DFACE
  8
0
  5
44
 10
5.458628
 20
5.484757
 30
1.0
 11
10.723798
 21
10.991159
 31
0.5
 12
10.963798
 22
10.751159
 32
0.5
 13
5.458628
 23
5.484757
 33
1.0
  0
3DFACE
  8
0
  5
45
 10
0.203798
 20
10.991159
 30
0.5
 11
5.458628
 21
5.484757
 31
1.0
 12
5.458628
 22
5.484757
 32
1.0
 13
10.723798
 23
10.991159
 33
0.5
  0
LINE
  8
0
 39
1.25
  5
46
 10
6.195387
 20
9.169104
 30
0.0
 11
4.73221
 21
9.169104
 31
0.0
  0
LINE
  8
0
 39
1.25
  5
47
 10
7.547187
 20
8.60917
 30
0.0
 11
6.195387
 21
9.169104
 31
0.0
  0
LINE
  8
0
 39
1.25
  5
48
 10
8.581809
 20
7.574547
 30
0.0
 11
7.547187
 21
8.60917
 31
0.0
  0
LINE
  8
0
 39
1.25
  5
49
 10
9.141743
 20
6.222748
 30
0.0
 11
8.581809
 21
7.574547
 31
0.0
  0
LINE
  8
0
 39
1.25
  5
4A
 10
9.141743
 20
4.75957
 30
0.0
 11
9.141743
 21
6.222748
 31
0.0
  0
LINE
  8
0
 39
1.25
  5
4B
 10
8.581809
 20
3.407771
 30
0.0
 11
9.141743
 21
4.75957
 31
0.0
  0
LINE
  8
0
 39
1.25
  5
4C
 10
7.547187
 20
2.373148
 30
0.0
 11
8.581809
 21
3.407771
 31
0.0
  0
LINE
  8
0
 39
1.25
  5
4D
 10
6.195387
 20
1.813214
 30
0.0
 11
7.547187
 21
2.373148
 31
0.0
  0
LINE
  8
0
 39
1.25
  5
4E
 10
4.73221
 20
1.813214
 30
0.0
 11
6.195387
 21
1.813214
 31
0.0
  0
LINE
  8
0
 39
1.25
  5
4F
 10
3.38041
 20
2.373148
 30
0.0
 11
4.73221
 21
1.813214
 31
0.0
  0
LINE
  8
0
 39
1.25
  5
50
 10
2.345787
 20
3.407771
 30
0.0
 11
3.38041
 21
2.373148
 31
0.0
  0
LINE
  8
0
 39
1.25
  5
51
 10
1.785854
 20
4.75957
 30
0.0
 11
2.345787
 21
3.407771
 31
0.0
  0
LINE
  8
0
 39
1.25
  5
52
 10
1.785854
 20
6.222748
 30
0.0
 11
1.785854
 21
4.75957
 31
0.0
  0
LINE
  8
0
 39
1.25
  5
53
 10
2.345787
 20
7.574547
 30
0.0
 11
1.785854
 21
6.222748
 31
0.0
  0
LINE
  8
0
 39
1.25
  5
54
 10
3.38041
 20
8.60917
 30
0.0
 11
2.345787
 21
7.574547
 31
0.0
  0
LINE
  8
0
 39
1.25
  5
55
 10
4.73221
 20
9.169104
 30
0.0
 11
3.38041
 21
8.60917
 31
0.0
  0
LINE
  8
0
 39
0.5
  5
56
 10
0.203798
 20
-0.008841
 30
0.0
 11
-0.036202
 21
0.231159
 31
0.0
  0
LINE
  8
0
 39
0.5
  5
57
 10
10.963798
 20
0.231159
 30
0.0
 11
10.723798
 21
-0.008841
 31
0.0
  0
LINE
  8
0
 39
0.5
  5
58
 10
10.723798
 20
10.991159
 30
0.0
 11
10.963798
 21
10.751159
 31
0.0
  0
LINE
  8
0
 39
0.5
  5
59
 10
-0.036202
 20
10.751159
 30
0.0
 11
0.203798
 21
10.991159
 31
0.0
  0
LINE
  8
0
 39
0.5
  5
5A
 10
0.203798
 20
10.991159
 30
0.0
 11
10.723798
 21
10.991159
 31
0.0
  0
LINE
  8
0
 39
0.5
  5
5B
 10
10.963798
 20
10.751159
 30
0.0
 11
10.963798
 21
0.231159
 31
0.0
  0
LINE
  8
0
 39
0.5
  5
5C
 10
0.203798
 20
-0.008841
 30
0.0
 11
10.723798
 21
-0.008841
 31
0.0
  0
LINE
  8
0
 39
0.5
  5
5D
 10
-0.036202
 20
10.751159
 30
0.0
 11
-0.036202
 21
0.231159
 31
0.0
  0
ENDBLK
  8
0
  5
5E
  0
BLOCK
  8
0
  5
DC3
  2
DISKLVR
 70
    64
 10
0.0
 20
0.0
 30
0.0
  3
DISKLVR
  0
3DFACE
  8
0
  6
BYBLOCK
 62
     0
  5
E7C
 10
-0.180258
 20
0.011084
 30
0.5
 11
-0.114859
 21
0.148878
 31
0.5
 12
-0.162203
 22
0.086932
 32
0.5
 13
-0.180258
 23
0.011084
 33
0.5
 70
     1
  0
3DFACE
  8
0
  6
BYBLOCK
 62
     0
  5
E7D
 10
-0.046412
 20
0.186213
 30
0.5
 11
-0.165902
 21
-0.06555
 31
0.5
 12
-0.180258
 22
0.011084
 32
0.5
 13
-0.114859
 23
0.148878
 33
0.5
 70
     5
  0
3DFACE
  8
0
  6
BYBLOCK
 62
     0
  5
E7E
 10
-0.121618
 20
-0.129719
 30
0.5
 11
0.031302
 21
0.19248
 31
0.5
 12
-0.046412
 22
0.186213
 32
0.5
 13
-0.165902
 23
-0.06555
 33
0.5
 70
     5
  0
3DFACE
  8
0
  6
BYBLOCK
 62
     0
  5
E7F
 10
0.104847
 20
0.166596
 30
0.5
 11
-0.055062
 21
-0.170328
 31
0.5
 12
-0.121618
 22
-0.129719
 32
0.5
 13
0.031302
 23
0.19248
 33
0.5
 70
     5
  0
3DFACE
  8
0
  6
BYBLOCK
 62
     0
  5
E80
 10
0.022258
 20
-0.180356
 30
0.5
 11
0.335452
 21
0.006537
 31
0.5
 12
0.104847
 22
0.166596
 32
0.5
 13
-0.055062
 23
-0.170328
 33
0.5
 70
     5
  0
3DFACE
  8
0
  6
BYBLOCK
 62
     0
  5
E81
 10
0.819687
 20
0.006537
 30
0.5
 11
0.819687
 21
-0.180356
 31
0.5
 12
0.022258
 22
-0.180356
 32
0.5
 13
0.335452
 23
0.006537
 33
0.5
 70
     4
  0
LINE
  8
0
  6
BYBLOCK
 62
     0
 39
-0.375
  5
E82
 10
-0.055062
 20
-0.170328
 30
0.5
 11
0.022258
 21
-0.180356
 31
0.5
  0
LINE
  8
0
  6
BYBLOCK
 62
     0
 39
-0.375
  5
E83
 10
-0.121618
 20
-0.129719
 30
0.5
 11
-0.055062
 21
-0.170328
 31
0.5
  0
LINE
  8
0
  6
BYBLOCK
 62
     0
 39
-0.375
  5
E84
 10
-0.165902
 20
-0.06555
 30
0.5
 11
-0.121618
 21
-0.129719
 31
0.5
  0
LINE
  8
0
  6
BYBLOCK
 62
     0
 39
-0.375
  5
E85
 10
-0.180258
 20
0.011084
 30
0.5
 11
-0.165902
 21
-0.06555
 31
0.5
  0
LINE
  8
0
  6
BYBLOCK
 62
     0
 39
-0.375
  5
E86
 10
-0.162203
 20
0.086932
 30
0.5
 11
-0.180258
 21
0.011084
 31
0.5
  0
LINE
  8
0
  6
BYBLOCK
 62
     0
 39
-0.375
  5
E87
 10
-0.114859
 20
0.148878
 30
0.5
 11
-0.162203
 21
0.086932
 31
0.5
  0
LINE
  8
0
  6
BYBLOCK
 62
     0
 39
-0.375
  5
E88
 10
-0.046412
 20
0.186213
 30
0.5
 11
-0.114859
 21
0.148878
 31
0.5
  0
LINE
  8
0
  6
BYBLOCK
 62
     0
 39
-0.375
  5
E89
 10
0.031302
 20
0.19248
 30
0.5
 11
-0.046412
 21
0.186213
 31
0.5
  0
LINE
  8
0
  6
BYBLOCK
 62
     0
 39
-0.375
  5
E8A
 10
0.104847
 20
0.166596
 30
0.5
 11
0.031302
 21
0.19248
 31
0.5
  0
LINE
  8
0
  6
BYBLOCK
 62
     0
 39
-0.375
  5
E8B
 10
0.335452
 20
0.006537
 30
0.5
 11
0.104847
 21
0.166596
 31
0.5
  0
LINE
  8
0
  6
BYBLOCK
 62
     0
 39
-0.375
  5
E8C
 10
0.335452
 20
0.006537
 30
0.5
 11
0.819687
 21
0.006537
 31
0.5
  0
LINE
  8
0
  6
BYBLOCK
 62
     0
 39
-0.375
  5
E8D
 10
0.819687
 20
0.006537
 30
0.5
 11
0.819687
 21
-0.180356
 31
0.5
  0
LINE
  8
0
  6
BYBLOCK
 62
     0
 39
-0.375
  5
E8E
 10
0.022258
 20
-0.180356
 30
0.5
 11
0.819687
 21
-0.180356
 31
0.5
  0
ENDBLK
  8
0
  5
1B88
  0
BLOCK
  8
0
  5
101
  2
5CUBE
 70
    64
 10
0.0
 20
0.0
 30
0.0
  3
5CUBE
  0
LINE
  8
0
  6
BYBLOCK
 62
     0
 39
1.0
  5
102
 10
0.0
 20
0.0
 30
-1.0
 11
1.0
 21
0.0
 31
-1.0
  0
LINE
  8
0
  6
BYBLOCK
 62
     0
 39
1.0
  5
103
 10
0.0
 20
1.0
 30
-1.0
 11
0.0
 21
0.0
 31
-1.0
  0
LINE
  8
0
  6
BYBLOCK
 62
     0
 39
1.0
  5
104
 10
1.0
 20
1.0
 30
-1.0
 11
1.0
 21
0.0
 31
-1.0
  0
LINE
  8
0
  6
BYBLOCK
 62
     0
 39
1.0
  5
105
 10
0.0
 20
1.0
 30
-1.0
 11
1.0
 21
1.0
 31
-1.0
  0
3DFACE
  8
0
  6
BYBLOCK
 62
     0
  5
106
 10
0.0
 20
0.0
 30
-1.0
 11
1.0
 21
0.0
 31
-1.0
 12
1.0
 22
1.0
 32
-1.0
 13
0.0
 23
1.0
 33
-1.0
  0
ENDBLK
  8
0
  5
107
  0
BLOCK
  8
0
  5
257
  2
KEY2
 70
    64
 10
0.0
 20
0.0
 30
0.0
  3
KEY2
  0
3DFACE
  8
0
  5
258
 10
0.09281
 20
0.157057
 30
0.25
 11
0.84281
 21
0.157057
 31
0.25
 12
0.78031
 22
0.094557
 32
0.25
 13
0.15531
 23
0.094557
 33
0.25
 70
     1
  0
3DFACE
  8
0
  5
259
 10
0.84281
 20
0.594557
 30
0.25
 11
0.09281
 21
0.594557
 31
0.25
 12
0.09281
 22
0.157057
 32
0.25
 13
0.84281
 23
0.157057
 33
0.25
 70
     5
  0
3DFACE
  8
0
  5
25A
 10
0.15531
 20
0.657057
 30
0.25
 11
0.78031
 21
0.657057
 31
0.25
 12
0.84281
 22
0.594557
 32
0.25
 13
0.09281
 23
0.594557
 33
0.25
 70
     4
  0
3DFACE
  8
0
  5
25B
 10
0.78031
 20
0.657057
 30
0.25
 11
0.87406
 21
0.688307
 31
0.0
 12
0.06156
 22
0.688307
 32
0.0
 13
0.15531
 23
0.657057
 33
0.25
  0
3DFACE
  8
0
  5
25C
 10
0.93656
 20
0.625807
 30
0.0
 11
0.84281
 21
0.594557
 31
0.25
 12
0.78031
 22
0.657057
 32
0.25
 13
0.87406
 23
0.688307
 33
0.0
  0
3DFACE
  8
0
  5
25D
 10
0.84281
 20
0.157057
 30
0.25
 11
0.93656
 21
0.063307
 31
0.0
 12
0.93656
 22
0.625807
 32
0.0
 13
0.84281
 23
0.594557
 33
0.25
  0
3DFACE
  8
0
  5
25E
 10
0.87406
 20
0.000807
 30
0.0
 11
0.78031
 21
0.094557
 31
0.25
 12
0.84281
 22
0.157057
 32
0.25
 13
0.93656
 23
0.063307
 33
0.0
  0
3DFACE
  8
0
  5
25F
 10
0.15531
 20
0.094557
 30
0.25
 11
0.06156
 21
0.000807
 31
0.0
 12
0.87406
 22
0.000807
 32
0.0
 13
0.78031
 23
0.094557
 33
0.25
  0
3DFACE
  8
0
  5
260
 10
-0.00094
 20
0.063307
 30
0.0
 11
0.09281
 21
0.157057
 31
0.25
 12
0.15531
 22
0.094557
 32
0.25
 13
0.06156
 23
0.000807
 33
0.0
  0
3DFACE
  8
0
  5
261
 10
0.09281
 20
0.594557
 30
0.25
 11
-0.00094
 21
0.625807
 31
0.0
 12
-0.00094
 22
0.063307
 32
0.0
 13
0.09281
 23
0.157057
 33
0.25
  0
3DFACE
  8
0
  5
262
 10
0.06156
 20
0.688307
 30
0.0
 11
0.15531
 21
0.657057
 31
0.25
 12
0.09281
 22
0.594557
 32
0.25
 13
-0.00094
 23
0.625807
 33
0.0
  0
ENDBLK
  8
0
  5
263
  0
BLOCK
  8
0
  5
264
  2
KEY3
 70
    64
 10
0.0
 20
0.0
 30
0.0
  3
KEY3
  0
3DFACE
  8
0
  5
265
 10
0.094889
 20
0.157057
 30
0.25
 11
1.719889
 21
0.157057
 31
0.25
 12
1.657389
 22
0.094557
 32
0.25
 13
0.157389
 23
0.094557
 33
0.25
 70
     1
  0
3DFACE
  8
0
  5
266
 10
1.719889
 20
0.594557
 30
0.25
 11
0.094889
 21
0.594557
 31
0.25
 12
0.094889
 22
0.157057
 32
0.25
 13
1.719889
 23
0.157057
 33
0.25
 70
     5
  0
3DFACE
  8
0
  5
267
 10
0.157389
 20
0.657057
 30
0.25
 11
1.657389
 21
0.657057
 31
0.25
 12
1.719889
 22
0.594557
 32
0.25
 13
0.094889
 23
0.594557
 33
0.25
 70
     4
  0
3DFACE
  8
0
  5
268
 10
1.657389
 20
0.657057
 30
0.25
 11
1.751139
 21
0.688307
 31
0.0
 12
0.063639
 22
0.688307
 32
0.0
 13
0.157389
 23
0.657057
 33
0.25
  0
3DFACE
  8
0
  5
269
 10
1.813639
 20
0.625807
 30
0.0
 11
1.719889
 21
0.594557
 31
0.25
 12
1.657389
 22
0.657057
 32
0.25
 13
1.751139
 23
0.688307
 33
0.0
  0
3DFACE
  8
0
  5
26A
 10
1.719889
 20
0.157057
 30
0.25
 11
1.813639
 21
0.063307
 31
0.0
 12
1.813639
 22
0.625807
 32
0.0
 13
1.719889
 23
0.594557
 33
0.25
  0
3DFACE
  8
0
  5
26B
 10
1.751139
 20
0.000807
 30
0.0
 11
1.657389
 21
0.094557
 31
0.25
 12
1.719889
 22
0.157057
 32
0.25
 13
1.813639
 23
0.063307
 33
0.0
  0
3DFACE
  8
0
  5
26C
 10
0.157389
 20
0.094557
 30
0.25
 11
0.063639
 21
0.000807
 31
0.0
 12
1.751139
 22
0.000807
 32
0.0
 13
1.657389
 23
0.094557
 33
0.25
  0
3DFACE
  8
0
  5
26D
 10
0.001139
 20
0.063307
 30
0.0
 11
0.094889
 21
0.157057
 31
0.25
 12
0.157389
 22
0.094557
 32
0.25
 13
0.063639
 23
0.000807
 33
0.0
  0
3DFACE
  8
0
  5
26E
 10
0.094889
 20
0.594557
 30
0.25
 11
0.001139
 21
0.625807
 31
0.0
 12
0.001139
 22
0.063307
 32
0.0
 13
0.094889
 23
0.157057
 33
0.25
  0
3DFACE
  8
0
  5
26F
 10
0.063639
 20
0.688307
 30
0.0
 11
0.157389
 21
0.657057
 31
0.25
 12
0.094889
 22
0.594557
 32
0.25
 13
0.001139
 23
0.625807
 33
0.0
  0
ENDBLK
  8
0
  5
270
  0
BLOCK
  8
0
  5
271
  2
SPACE
 70
    64
 10
0.0
 20
0.0
 30
0.0
  3
SPACE
  0
3DFACE
  8
0
  5
272
 10
0.086344
 20
0.151001
 30
0.25
 11
5.086344
 21
0.151001
 31
0.25
 12
5.023844
 22
0.088501
 32
0.25
 13
0.148844
 23
0.088501
 33
0.25
 70
     1
  0
3DFACE
  8
0
  5
273
 10
5.086344
 20
0.588501
 30
0.25
 11
0.086344
 21
0.588501
 31
0.25
 12
0.086344
 22
0.151001
 32
0.25
 13
5.086344
 23
0.151001
 33
0.25
 70
     5
  0
3DFACE
  8
0
  5
274
 10
0.148844
 20
0.651001
 30
0.25
 11
5.023844
 21
0.651001
 31
0.25
 12
5.086344
 22
0.588501
 32
0.25
 13
0.086344
 23
0.588501
 33
0.25
 70
     4
  0
3DFACE
  8
0
  5
275
 10
5.023844
 20
0.651001
 30
0.25
 11
5.117594
 21
0.682251
 31
0.0
 12
0.055094
 22
0.682251
 32
0.0
 13
0.148844
 23
0.651001
 33
0.25
  0
3DFACE
  8
0
  5
276
 10
5.180094
 20
0.619751
 30
0.0
 11
5.086344
 21
0.588501
 31
0.25
 12
5.023844
 22
0.651001
 32
0.25
 13
5.117594
 23
0.682251
 33
0.0
  0
3DFACE
  8
0
  5
277
 10
5.086344
 20
0.151001
 30
0.25
 11
5.180094
 21
0.057251
 31
0.0
 12
5.180094
 22
0.619751
 32
0.0
 13
5.086344
 23
0.588501
 33
0.25
  0
3DFACE
  8
0
  5
278
 10
5.117594
 20
-0.005249
 30
0.0
 11
5.023844
 21
0.088501
 31
0.25
 12
5.086344
 22
0.151001
 32
0.25
 13
5.180094
 23
0.057251
 33
0.0
  0
3DFACE
  8
0
  5
279
 10
0.148844
 20
0.088501
 30
0.25
 11
0.055094
 21
-0.005249
 31
0.0
 12
5.117594
 22
-0.005249
 32
0.0
 13
5.023844
 23
0.088501
 33
0.25
  0
3DFACE
  8
0
  5
27A
 10
-0.007406
 20
0.057251
 30
0.0
 11
0.086344
 21
0.151001
 31
0.25
 12
0.148844
 22
0.088501
 32
0.25
 13
0.055094
 23
-0.005249
 33
0.0
  0
3DFACE
  8
0
  5
27B
 10
0.086344
 20
0.588501
 30
0.25
 11
-0.007406
 21
0.619751
 31
0.0
 12
-0.007406
 22
0.057251
 32
0.0
 13
0.086344
 23
0.151001
 33
0.25
  0
3DFACE
  8
0
  5
27C
 10
0.055094
 20
0.682251
 30
0.0
 11
0.148844
 21
0.651001
 31
0.25
 12
0.086344
 22
0.588501
 32
0.25
 13
-0.007406
 23
0.619751
 33
0.0
  0
ENDBLK
  8
0
  5
27D
  0
BLOCK
  8
0
  5
27E
  2
CUBE5
 70
    64
 10
0.0
 20
0.0
 30
0.0
  3
CUBE5
  0
3DFACE
  8
0
  5
27F
 10
0.0
 20
1.0
 30
-1.0
 11
1.0
 21
1.0
 31
-1.0
 12
1.0
 22
0.0
 32
-1.0
 13
0.0
 23
0.0
 33
-1.0
  0
LINE
  8
0
 39
1.0
  5
280
 10
0.0
 20
1.0
 30
-1.0
 11
1.0
 21
1.0
 31
-1.0
  0
LINE
  8
0
 39
1.0
  5
281
 10
1.0
 20
1.0
 30
-1.0
 11
1.0
 21
0.0
 31
-1.0
  0
LINE
  8
0
 39
1.0
  5
282
 10
0.0
 20
0.0
 30
-1.0
 11
1.0
 21
0.0
 31
-1.0
  0
LINE
  8
0
 39
1.0
  5
283
 10
0.0
 20
1.0
 30
-1.0
 11
0.0
 21
0.0
 31
-1.0
  0
ENDBLK
  8
0
  5
284
  0
BLOCK
  8
0
  5
351
  2
KEY
 70
    64
 10
0.0
 20
0.0
 30
0.0
  3
KEY
  0
3DFACE
  8
0
  5
352
 10
0.094208
 20
0.154892
 30
0.25
 11
0.594208
 21
0.154892
 31
0.25
 12
0.531708
 22
0.092392
 32
0.25
 13
0.156708
 23
0.092392
 33
0.25
 70
     1
  0
3DFACE
  8
0
  5
353
 10
0.594208
 20
0.592392
 30
0.25
 11
0.094208
 21
0.592392
 31
0.25
 12
0.094208
 22
0.154892
 32
0.25
 13
0.594208
 23
0.154892
 33
0.25
 70
     5
  0
3DFACE
  8
0
  5
354
 10
0.156708
 20
0.654892
 30
0.25
 11
0.531708
 21
0.654892
 31
0.25
 12
0.594208
 22
0.592392
 32
0.25
 13
0.094208
 23
0.592392
 33
0.25
 70
     4
  0
3DFACE
  8
0
  5
355
 10
0.531708
 20
0.654892
 30
0.25
 11
0.625458
 21
0.686142
 31
0.0
 12
0.062958
 22
0.686142
 32
0.0
 13
0.156708
 23
0.654892
 33
0.25
  0
3DFACE
  8
0
  5
356
 10
0.687958
 20
0.623642
 30
0.0
 11
0.594208
 21
0.592392
 31
0.25
 12
0.531708
 22
0.654892
 32
0.25
 13
0.625458
 23
0.686142
 33
0.0
  0
3DFACE
  8
0
  5
357
 10
0.594208
 20
0.154892
 30
0.25
 11
0.687958
 21
0.061142
 31
0.0
 12
0.687958
 22
0.623642
 32
0.0
 13
0.594208
 23
0.592392
 33
0.25
  0
3DFACE
  8
0
  5
358
 10
0.625458
 20
-0.001358
 30
0.0
 11
0.531708
 21
0.092392
 31
0.25
 12
0.594208
 22
0.154892
 32
0.25
 13
0.687958
 23
0.061142
 33
0.0
  0
3DFACE
  8
0
  5
359
 10
0.156708
 20
0.092392
 30
0.25
 11
0.062958
 21
-0.001358
 31
0.0
 12
0.625458
 22
-0.001358
 32
0.0
 13
0.531708
 23
0.092392
 33
0.25
  0
3DFACE
  8
0
  5
35A
 10
0.000458
 20
0.061142
 30
0.0
 11
0.094208
 21
0.154892
 31
0.25
 12
0.156708
 22
0.092392
 32
0.25
 13
0.062958
 23
-0.001358
 33
0.0
  0
3DFACE
  8
0
  5
35B
 10
0.094208
 20
0.592392
 30
0.25
 11
0.000458
 21
0.623642
 31
0.0
 12
0.000458
 22
0.061142
 32
0.0
 13
0.094208
 23
0.154892
 33
0.25
  0
3DFACE
  8
0
  5
35C
 10
0.062958
 20
0.686142
 30
0.0
 11
0.156708
 21
0.654892
 31
0.25
 12
0.094208
 22
0.592392
 32
0.25
 13
0.000458
 23
0.623642
 33
0.0
  0
ENDBLK
  8
0
  5
35D
  0
ENDSEC
  0
SECTION
  2
ENTITIES
  0
INSERT
  8
11COM09-KEYS
  5
429
  2
KEY
 10
1.107757
 20
-14.600799
 30
1.568026
210
0.034899496702501
220
0.0
230
0.9993908270190958
  0
INSERT
  8
11COM09-KEYS
  5
42A
  2
KEY
 10
1.857757
 20
-14.600799
 30
1.568026
210
0.034899496702501
220
0.0
230
0.9993908270190958
  0
INSERT
  8
11COM09-KEYS
  5
42B
  2
KEY
 10
2.607757
 20
-14.600799
 30
1.568026
210
0.034899496702501
220
0.0
230
0.9993908270190958
  0
INSERT
  8
11COM09-KEYS
  5
42C
  2
KEY
 10
3.357757
 20
-14.600799
 30
1.568026
210
0.034899496702501
220
0.0
230
0.9993908270190958
  0
INSERT
  8
11COM09-KEYS
  5
42D
  2
KEY
 10
4.107757
 20
-14.600799
 30
1.568026
210
0.034899496702501
220
0.0
230
0.9993908270190958
  0
INSERT
  8
11COM09-KEYS
  5
42E
  2
KEY
 10
4.857757
 20
-14.600799
 30
1.568026
210
0.034899496702501
220
0.0
230
0.9993908270190958
  0
INSERT
  8
11COM09-KEYS
  5
42F
  2
KEY
 10
5.607757
 20
-14.600799
 30
1.568026
210
0.034899496702501
220
0.0
230
0.9993908270190958
  0
INSERT
  8
11COM09-KEYS
  5
430
  2
KEY
 10
6.357757
 20
-14.600799
 30
1.568026
210
0.034899496702501
220
0.0
230
0.9993908270190958
  0
INSERT
  8
11COM09-KEYS
  5
431
  2
KEY
 10
7.107757
 20
-14.600799
 30
1.568026
210
0.034899496702501
220
0.0
230
0.9993908270190958
  0
INSERT
  8
11COM09-KEYS
  5
432
  2
KEY
 10
7.857757
 20
-14.600799
 30
1.568026
210
0.034899496702501
220
0.0
230
0.9993908270190958
  0
INSERT
  8
11COM09-KEYS
  5
433
  2
KEY
 10
8.607757
 20
-14.600799
 30
1.568026
210
0.034899496702501
220
0.0
230
0.9993908270190958
  0
INSERT
  8
11COM09-KEYS
  5
434
  2
KEY
 10
9.357757
 20
-14.600799
 30
1.568026
210
0.034899496702501
220
0.0
230
0.9993908270190958
  0
INSERT
  8
11COM09-KEYS
  5
435
  2
KEY
 10
10.107757
 20
-14.600799
 30
1.568026
210
0.034899496702501
220
0.0
230
0.9993908270190958
  0
INSERT
  8
11COM09-KEYS
  5
436
  2
KEY2
 10
1.107757
 20
-15.359848
 30
1.568026
210
0.034899496702501
220
0.0
230
0.9993908270190958
  0
INSERT
  8
11COM09-KEYS
  5
437
  2
KEY
 10
10.356359
 20
-15.357683
 30
1.568026
210
0.034899496702501
220
0.0
230
0.9993908270190958
  0
INSERT
  8
11COM09-KEYS
  5
438
  2
KEY
 10
9.606359
 20
-15.357683
 30
1.568026
210
0.034899496702501
220
0.0
230
0.9993908270190958
  0
INSERT
  8
11COM09-KEYS
  5
439
  2
KEY
 10
8.856359
 20
-15.357683
 30
1.568026
210
0.034899496702501
220
0.0
230
0.9993908270190958
  0
INSERT
  8
11COM09-KEYS
  5
43A
  2
KEY
 10
8.106359
 20
-15.357683
 30
1.568026
210
0.034899496702501
220
0.0
230
0.9993908270190958
  0
INSERT
  8
11COM09-KEYS
  5
43B
  2
KEY
 10
7.356359
 20
-15.357683
 30
1.568026
210
0.034899496702501
220
0.0
230
0.9993908270190958
  0
INSERT
  8
11COM09-KEYS
  5
43C
  2
KEY
 10
6.606359
 20
-15.357683
 30
1.568026
210
0.034899496702501
220
0.0
230
0.9993908270190958
  0
INSERT
  8
11COM09-KEYS
  5
43D
  2
KEY
 10
5.856359
 20
-15.357683
 30
1.568026
210
0.034899496702501
220
0.0
230
0.9993908270190958
  0
INSERT
  8
11COM09-KEYS
  5
43E
  2
KEY
 10
5.106359
 20
-15.357683
 30
1.568026
210
0.034899496702501
220
0.0
230
0.9993908270190958
  0
INSERT
  8
11COM09-KEYS
  5
43F
  2
KEY
 10
4.356359
 20
-15.357683
 30
1.568026
210
0.034899496702501
220
0.0
230
0.9993908270190958
  0
INSERT
  8
11COM09-KEYS
  5
440
  2
KEY
 10
3.606359
 20
-15.357683
 30
1.568026
210
0.034899496702501
220
0.0
230
0.9993908270190958
  0
INSERT
  8
11COM09-KEYS
  5
441
  2
KEY
 10
2.856359
 20
-15.357683
 30
1.568026
210
0.034899496702501
220
0.0
230
0.9993908270190958
  0
INSERT
  8
11COM09-KEYS
  5
442
  2
KEY
 10
2.106359
 20
-15.357683
 30
1.568026
210
0.034899496702501
220
0.0
230
0.9993908270190958
  0
INSERT
  8
11COM09-KEYS
  5
443
  2
KEY
 10
2.358508
 20
-16.114567
 30
1.568026
210
0.034899496702501
220
0.0
230
0.9993908270190958
  0
INSERT
  8
11COM09-KEYS
  5
444
  2
KEY
 10
3.108508
 20
-16.114567
 30
1.568026
210
0.034899496702501
220
0.0
230
0.9993908270190958
  0
INSERT
  8
11COM09-KEYS
  5
445
  2
KEY
 10
3.858508
 20
-16.114567
 30
1.568026
210
0.034899496702501
220
0.0
230
0.9993908270190958
  0
INSERT
  8
11COM09-KEYS
  5
446
  2
KEY
 10
4.608508
 20
-16.114567
 30
1.568026
210
0.034899496702501
220
0.0
230
0.9993908270190958
  0
INSERT
  8
11COM09-KEYS
  5
447
  2
KEY
 10
5.358508
 20
-16.114567
 30
1.568026
210
0.034899496702501
220
0.0
230
0.9993908270190958
  0
INSERT
  8
11COM09-KEYS
  5
448
  2
KEY
 10
6.108508
 20
-16.114567
 30
1.568026
210
0.034899496702501
220
0.0
230
0.9993908270190958
  0
INSERT
  8
11COM09-KEYS
  5
449
  2
KEY
 10
6.858508
 20
-16.114567
 30
1.568026
210
0.034899496702501
220
0.0
230
0.9993908270190958
  0
INSERT
  8
11COM09-KEYS
  5
44A
  2
KEY
 10
7.608508
 20
-16.114567
 30
1.568026
210
0.034899496702501
220
0.0
230
0.9993908270190958
  0
INSERT
  8
11COM09-KEYS
  5
44B
  2
KEY
 10
8.358508
 20
-16.114567
 30
1.568026
210
0.034899496702501
220
0.0
230
0.9993908270190958
  0
INSERT
  8
11COM09-KEYS
  5
44C
  2
KEY
 10
9.108508
 20
-16.114567
 30
1.568026
210
0.034899496702501
220
0.0
230
0.9993908270190958
  0
INSERT
  8
11COM09-KEYS
  5
44D
  2
KEY
 10
9.858508
 20
-16.114567
 30
1.568026
210
0.034899496702501
220
0.0
230
0.9993908270190958
  0
INSERT
  8
11COM09-KEYS
  5
44E
  2
KEY2
 10
1.106359
 20
-16.116732
 30
1.568026
210
0.034899496702501
220
0.0
230
0.9993908270190958
  0
INSERT
  8
11COM09-KEYS
  5
44F
  2
KEY3
 10
1.107771
 20
-16.875781
 30
1.568026
 41
0.75
210
0.034899496702501
220
0.0
230
0.9993908270190958
  0
INSERT
  8
11COM09-KEYS
  5
450
  2
KEY
 10
9.478491
 20
-16.873616
 30
1.568026
210
0.034899496702501
220
0.0
230
0.9993908270190958
  0
INSERT
  8
11COM09-KEYS
  5
451
  2
KEY
 10
8.728491
 20
-16.873616
 30
1.568026
210
0.034899496702501
220
0.0
230
0.9993908270190958
  0
INSERT
  8
11COM09-KEYS
  5
452
  2
KEY
 10
7.978491
 20
-16.873616
 30
1.568026
210
0.034899496702501
220
0.0
230
0.9993908270190958
  0
INSERT
  8
11COM09-KEYS
  5
453
  2
KEY
 10
7.228491
 20
-16.873616
 30
1.568026
210
0.034899496702501
220
0.0
230
0.9993908270190958
  0
INSERT
  8
11COM09-KEYS
  5
454
  2
KEY
 10
6.478491
 20
-16.873616
 30
1.568026
210
0.034899496702501
220
0.0
230
0.9993908270190958
  0
INSERT
  8
11COM09-KEYS
  5
455
  2
KEY
 10
5.728491
 20
-16.873616
 30
1.568026
210
0.034899496702501
220
0.0
230
0.9993908270190958
  0
INSERT
  8
11COM09-KEYS
  5
456
  2
KEY
 10
4.978491
 20
-16.873616
 30
1.568026
210
0.034899496702501
220
0.0
230
0.9993908270190958
  0
INSERT
  8
11COM09-KEYS
  5
457
  2
KEY
 10
4.228491
 20
-16.873616
 30
1.568026
210
0.034899496702501
220
0.0
230
0.9993908270190958
  0
INSERT
  8
11COM09-KEYS
  5
458
  2
KEY
 10
3.478491
 20
-16.873616
 30
1.568026
210
0.034899496702501
220
0.0
230
0.9993908270190958
  0
INSERT
  8
11COM09-KEYS
  5
459
  2
KEY
 10
2.728491
 20
-16.873616
 30
1.568026
210
0.034899496702501
220
0.0
230
0.9993908270190958
  0
INSERT
  8
11COM09-KEYS
  5
45A
  2
KEY2
 10
1.106359
 20
-17.63483
 30
1.568026
210
0.034899496702501
220
0.0
230
0.9993908270190958
  0
INSERT
  8
11COM09-KEYS
  5
45B
  2
KEY2
 10
2.874186
 20
-17.63483
 30
1.568026
210
0.034899496702501
220
0.0
230
0.9993908270190958
  0
INSERT
  8
11COM09-KEYS
  5
45C
  2
SPACE
 10
3.888131
 20
-17.631259
 30
1.568026
210
0.034899496702501
220
0.0
230
0.9993908270190958
  0
INSERT
  8
11COM09-KEYS
  5
45D
  2
KEY2
 10
9.14333
 20
-17.63483
 30
1.568026
210
0.034899496702501
220
0.0
230
0.9993908270190958
  0
INSERT
  8
11COM09-KEYS
  5
45E
  2
KEY2
 10
10.875905
 20
-14.594029
 30
1.568026
 41
1.2
210
0.034899496702501
220
0.0
230
0.9993908270190958
  0
INSERT
  8
11COM09-KEYS
  5
45F
  2
KEY2
 10
11.124507
 20
-15.350913
 30
1.568026
 41
0.93
210
0.034899496702501
220
0.0
230
0.9993908270190958
  0
INSERT
  8
11COM09-KEYS
  5
460
  2
KEY3
 10
10.654928
 20
-16.1206
 30
1.568026
 41
0.74
210
0.034899496702501
220
0.0
230
0.9993908270190958
  0
INSERT
  8
11COM09-KEYS
  5
461
  2
KEY3
 10
10.248212
 20
-16.875781
 30
1.568026
 41
0.97
210
0.034899496702501
220
0.0
230
0.9993908270190958
  0
INSERT
  8
11COM09-KEYS
  5
462
  2
KEY2
 10
11.059893
 20
-17.63483
 30
1.568026
210
0.034899496702501
220
0.0
230
0.9993908270190958
  0
INSERT
  8
11COM09-KEYS
  5
463
  2
KEY
 10
13.96123
 20
-14.600799
 30
1.568026
210
0.034899496702501
220
0.0
230
0.9993908270190958
  0
INSERT
  8
11COM09-KEYS
  5
464
  2
KEY
 10
13.21123
 20
-14.600799
 30
1.568026
210
0.034899496702501
220
0.0
230
0.9993908270190958
  0
INSERT
  8
11COM09-KEYS
  5
465
  2
KEY
 10
12.46123
 20
-14.600799
 30
1.568026
210
0.034899496702501
220
0.0
230
0.9993908270190958
  0
INSERT
  8
11COM09-KEYS
  5
466
  2
KEY
 10
12.46123
 20
-15.35701
 30
1.568026
210
0.034899496702501
220
0.0
230
0.9993908270190958
  0
INSERT
  8
11COM09-KEYS
  5
467
  2
KEY
 10
13.21123
 20
-15.35701
 30
1.568026
210
0.034899496702501
220
0.0
230
0.9993908270190958
  0
INSERT
  8
11COM09-KEYS
  5
468
  2
KEY
 10
13.96123
 20
-15.35701
 30
1.568026
210
0.034899496702501
220
0.0
230
0.9993908270190958
  0
INSERT
  8
11COM09-KEYS
  5
469
  2
KEY
 10
12.46123
 20
-17.625942
 30
1.568026
210
0.034899496702501
220
0.0
230
0.9993908270190958
  0
INSERT
  8
11COM09-KEYS
  5
46A
  2
KEY
 10
13.21123
 20
-17.625942
 30
1.568026
210
0.034899496702501
220
0.0
230
0.9993908270190958
  0
INSERT
  8
11COM09-KEYS
  5
46B
  2
KEY
 10
13.96123
 20
-17.625942
 30
1.568026
210
0.034899496702501
220
0.0
230
0.9993908270190958
  0
INSERT
  8
11COM09-KEYS
  5
46C
  2
KEY
 10
13.21123
 20
-16.869731
 30
1.568026
210
0.034899496702501
220
0.0
230
0.9993908270190958
  0
INSERT
  8
11COM09-KEYS
  5
46D
  2
KEY
 10
16.609024
 20
-15.35701
 30
1.568026
210
0.034899496702501
220
0.0
230
0.9993908270190958
  0
INSERT
  8
11COM09-KEYS
  5
46E
  2
KEY
 10
15.859024
 20
-15.35701
 30
1.568026
210
0.034899496702501
220
0.0
230
0.9993908270190958
  0
INSERT
  8
11COM09-KEYS
  5
46F
  2
KEY
 10
15.109024
 20
-15.35701
 30
1.568026
210
0.034899496702501
220
0.0
230
0.9993908270190958
  0
INSERT
  8
11COM09-KEYS
  5
470
  2
KEY
 10
15.109024
 20
-14.600799
 30
1.568026
210
0.034899496702501
220
0.0
230
0.9993908270190958
  0
INSERT
  8
11COM09-KEYS
  5
471
  2
KEY
 10
15.859024
 20
-14.600799
 30
1.568026
210
0.034899496702501
220
0.0
230
0.9993908270190958
  0
INSERT
  8
11COM09-KEYS
  5
472
  2
KEY
 10
16.609024
 20
-14.600799
 30
1.568026
210
0.034899496702501
220
0.0
230
0.9993908270190958
  0
INSERT
  8
11COM09-KEYS
  5
473
  2
KEY
 10
16.609024
 20
-16.113552
 30
1.568026
210
0.034899496702501
220
0.0
230
0.9993908270190958
  0
INSERT
  8
11COM09-KEYS
  5
474
  2
KEY
 10
15.859024
 20
-16.113552
 30
1.568026
210
0.034899496702501
220
0.0
230
0.9993908270190958
  0
INSERT
  8
11COM09-KEYS
  5
475
  2
KEY
 10
15.109024
 20
-16.113552
 30
1.568026
210
0.034899496702501
220
0.0
230
0.9993908270190958
  0
INSERT
  8
11COM09-KEYS
  5
476
  2
KEY
 10
15.109024
 20
-16.869763
 30
1.568026
210
0.034899496702501
220
0.0
230
0.9993908270190958
  0
INSERT
  8
11COM09-KEYS
  5
477
  2
KEY
 10
15.859024
 20
-16.869763
 30
1.568026
210
0.034899496702501
220
0.0
230
0.9993908270190958
  0
INSERT
  8
11COM09-KEYS
  5
478
  2
KEY
 10
16.609024
 20
-16.869763
 30
1.568026
210
0.034899496702501
220
0.0
230
0.9993908270190958
  0
INSERT
  8
11COM09-KEYS
  5
479
  2
KEY
 10
12.46123
 20
-13.162859
 30
1.568026
210
0.034899496702501
220
0.0
230
0.9993908270190958
  0
INSERT
  8
11COM09-KEYS
  5
47A
  2
KEY
 10
13.21123
 20
-13.162859
 30
1.568026
210
0.034899496702501
220
0.0
230
0.9993908270190958
  0
INSERT
  8
11COM09-KEYS
  5
47B
  2
KEY
 10
13.96123
 20
-13.162859
 30
1.568026
210
0.034899496702501
220
0.0
230
0.9993908270190958
  0
INSERT
  8
11COM09-KEYS
  5
47C
  2
KEY
 10
9.063435
 20
-13.162859
 30
1.568026
210
0.034899496702501
220
0.0
230
0.9993908270190958
  0
INSERT
  8
11COM09-KEYS
  5
47D
  2
KEY
 10
11.313435
 20
-13.162859
 30
1.568026
210
0.034899496702501
220
0.0
230
0.9993908270190958
  0
INSERT
  8
11COM09-KEYS
  5
47E
  2
KEY
 10
10.563435
 20
-13.162859
 30
1.568026
210
0.034899496702501
220
0.0
230
0.9993908270190958
  0
INSERT
  8
11COM09-KEYS
  5
47F
  2
KEY
 10
9.813435
 20
-13.162859
 30
1.568026
210
0.034899496702501
220
0.0
230
0.9993908270190958
  0
INSERT
  8
11COM09-KEYS
  5
480
  2
KEY
 10
5.77352
 20
-13.162859
 30
1.568026
210
0.034899496702501
220
0.0
230
0.9993908270190958
  0
INSERT
  8
11COM09-KEYS
  5
481
  2
KEY
 10
8.02352
 20
-13.162859
 30
1.568026
210
0.034899496702501
220
0.0
230
0.9993908270190958
  0
INSERT
  8
11COM09-KEYS
  5
482
  2
KEY
 10
7.27352
 20
-13.162859
 30
1.568026
210
0.034899496702501
220
0.0
230
0.9993908270190958
  0
INSERT
  8
11COM09-KEYS
  5
483
  2
KEY
 10
6.52352
 20
-13.162859
 30
1.568026
210
0.034899496702501
220
0.0
230
0.9993908270190958
  0
INSERT
  8
11COM09-KEYS
  5
484
  2
KEY
 10
2.445763
 20
-13.162859
 30
1.568026
210
0.034899496702501
220
0.0
230
0.9993908270190958
  0
INSERT
  8
11COM09-KEYS
  5
485
  2
KEY
 10
4.695763
 20
-13.162859
 30
1.568026
210
0.034899496702501
220
0.0
230
0.9993908270190958
  0
INSERT
  8
11COM09-KEYS
  5
486
  2
KEY
 10
3.945763
 20
-13.162859
 30
1.568026
210
0.034899496702501
220
0.0
230
0.9993908270190958
  0
INSERT
  8
11COM09-KEYS
  5
487
  2
KEY
 10
3.195763
 20
-13.162859
 30
1.568026
210
0.034899496702501
220
0.0
230
0.9993908270190958
  0
INSERT
  8
11COM09-KEYS
  5
488
  2
KEY
 10
1.117962
 20
-13.162859
 30
1.568026
210
0.034899496702501
220
0.0
230
0.9993908270190958
  0
INSERT
  8
11COM09-KEYS
  5
489
  2
KEY3
 10
15.109114
 20
-17.638819
 30
1.568026
 41
0.79
210
0.034899496702501
220
0.0
230
0.9993908270190958
  0
INSERT
  8
11COM09-KEYS
  5
48A
  2
KEY
 10
17.359024
 20
-14.600799
 30
1.568026
210
0.034899496702501
220
0.0
230
0.9993908270190958
  0
INSERT
  8
11COM09-KEYS
  5
48B
  2
KEY
 10
17.359024
 20
-16.112139
 30
1.568026
 42
2.1
210
0.034899496702501
220
0.0
230
0.9993908270190958
  0
INSERT
  8
11COM09-KEYS
  5
48C
  2
KEY
 10
16.609024
 20
-17.625974
 30
1.568026
210
0.034899496702501
220
0.0
230
0.9993908270190958
  0
INSERT
  8
11COM09-KEYS
  5
48D
  2
KEY
 10
17.359024
 20
-17.632484
 30
1.568026
 42
2.1
210
0.034899496702501
220
0.0
230
0.9993908270190958
  0
LINE
  8
11COM09-MAIN
 39
-0.75
  5
48E
 10
10.850541
 20
0.136611
 30
1.0
 11
18.350541
 21
0.136611
 31
1.0
  0
LINE
  8
11COM09-MAIN
 39
-0.75
  5
48F
 10
18.350541
 20
0.136611
 30
1.0
 11
18.350541
 21
19.136611
 31
1.0
  0
LINE
  8
11COM09-MAIN
 39
-0.75
  5
490
 10
10.850541
 20
0.136611
 30
1.0
 11
10.850541
 21
19.136611
 31
1.0
  0
LINE
  8
11COM09-MAIN
 39
-0.75
  5
491
 10
10.850541
 20
19.136611
 30
1.0
 11
18.350541
 21
19.136611
 31
1.0
  0
LINE
  8
11COM09-MAIN
 39
-0.25
  5
492
 10
12.358253
 20
18.636611
 30
1.191833
 11
17.854903
 21
18.636611
 31
0.999886
210
0.034899496702501
220
0.0
230
0.9993908270190958
  0
LINE
  8
11COM09-MAIN
 39
-0.25
  5
493
 10
12.358253
 20
0.636611
 30
1.191833
 11
17.854903
 21
0.636611
 31
0.999886
210
0.034899496702501
220
0.0
230
0.9993908270190958
  0
LINE
  8
11COM09-MAIN
  5
494
 10
17.854903
 20
0.636611
 30
0.999886
 11
17.854903
 21
18.636611
 31
0.999886
210
0.034899496702501
220
0.0
230
0.9993908270190958
  0
LINE
  8
11COM09-MAIN
 39
-0.25
  5
495
 10
12.358253
 20
0.636611
 30
1.191833
 11
12.358253
 21
18.636611
 31
1.191833
210
0.034899496702501
220
0.0
230
0.9993908270190958
  0
POLYLINE
  8
11COM09-MAIN
  5
496
 66
     1
 10
0.0
 20
0.0
 30
1.622404
 70
     1
210
0.034899496702501
220
0.0
230
0.9993908270190958
  0
VERTEX
  8
11COM09-MAIN
  5
497
 10
1.01512
 20
-13.825216
 30
1.622404
  0
VERTEX
  8
11COM09-MAIN
  5
498
 10
12.075568
 20
-13.825216
 30
1.622404
  0
VERTEX
  8
11COM09-MAIN
  5
499
 10
12.075568
 20
-17.726699
 30
1.622404
  0
VERTEX
  8
11COM09-MAIN
  5
49A
 10
10.946919
 20
-17.726699
 30
1.622404
  0
VERTEX
  8
11COM09-MAIN
  5
49B
 10
10.946919
 20
-16.985077
 30
1.622404
  0
VERTEX
  8
11COM09-MAIN
  5
49C
 10
10.173249
 20
-16.985077
 30
1.622404
  0
VERTEX
  8
11COM09-MAIN
  5
49D
 10
10.173249
 20
-17.726699
 30
1.622404
  0
VERTEX
  8
11COM09-MAIN
  5
49E
 10
2.788493
 20
-17.726699
 30
1.622404
  0
VERTEX
  8
11COM09-MAIN
  5
49F
 10
2.788493
 20
-16.985077
 30
1.622404
  0
VERTEX
  8
11COM09-MAIN
  5
4A0
 10
2.111153
 20
-16.985077
 30
1.622404
  0
VERTEX
  8
11COM09-MAIN
  5
4A1
 10
2.111153
 20
-17.726699
 30
1.622404
  0
VERTEX
  8
11COM09-MAIN
  5
4A2
 10
1.01512
 20
-17.726699
 30
1.622404
  0
SEQEND
  8
11COM09-MAIN
  5
4A3
  0
POLYLINE
  8
11COM09-MAIN
  5
4A4
 66
     1
 10
0.0
 20
0.0
 30
1.622404
 70
     1
210
0.034899496702501
220
0.0
230
0.9993908270190958
  0
VERTEX
  8
11COM09-MAIN
  5
4A5
 10
12.366073
 20
-13.825216
 30
1.622404
  0
VERTEX
  8
11COM09-MAIN
  5
4A6
 10
12.366073
 20
-15.437558
 30
1.622404
  0
VERTEX
  8
11COM09-MAIN
  5
4A7
 10
14.752314
 20
-15.437558
 30
1.622404
  0
VERTEX
  8
11COM09-MAIN
  5
4A8
 10
14.752314
 20
-13.825216
 30
1.622404
  0
SEQEND
  8
11COM09-MAIN
  5
4A9
  0
POLYLINE
  8
11COM09-MAIN
  5
4AA
 66
     1
 10
0.0
 20
0.0
 30
1.622404
 70
     1
210
0.034899496702501
220
0.0
230
0.9993908270190958
  0
VERTEX
  8
11COM09-MAIN
  5
4AB
 10
13.107886
 20
-16.114357
 30
1.622404
  0
VERTEX
  8
11COM09-MAIN
  5
4AC
 10
13.978644
 20
-16.114357
 30
1.622404
  0
VERTEX
  8
11COM09-MAIN
  5
4AD
 10
13.978644
 20
-16.824117
 30
1.622404
  0
VERTEX
  8
11COM09-MAIN
  5
4AE
 10
14.75003
 20
-16.824117
 30
1.622404
  0
VERTEX
  8
11COM09-MAIN
  5
4AF
 10
14.75003
 20
-17.726699
 30
1.622404
  0
VERTEX
  8
11COM09-MAIN
  5
4B0
 10
12.354039
 20
-17.741818
 30
1.622404
  0
VERTEX
  8
11COM09-MAIN
  5
4B1
 10
12.354039
 20
-16.839236
 30
1.622404
  0
VERTEX
  8
11COM09-MAIN
  5
4B2
 10
13.107886
 20
-16.824117
 30
1.622404
  0
SEQEND
  8
11COM09-MAIN
  5
4B3
  0
POLYLINE
  8
11COM09-MAIN
  5
4B4
 66
     1
 10
0.0
 20
0.0
 30
1.622404
 70
     1
210
0.034899496702501
220
0.0
230
0.9993908270190958
  0
VERTEX
  8
11COM09-MAIN
  5
4B5
 10
15.010204
 20
-13.825216
 30
1.622404
  0
VERTEX
  8
11COM09-MAIN
  5
4B6
 10
18.138258
 20
-13.825216
 30
1.622404
  0
VERTEX
  8
11COM09-MAIN
  5
4B7
 10
18.138258
 20
-17.726699
 30
1.622404
  0
VERTEX
  8
11COM09-MAIN
  5
4B8
 10
15.010204
 20
-17.726699
 30
1.622404
  0
SEQEND
  8
11COM09-MAIN
  5
4B9
  0
POLYLINE
  8
11COM09-MAIN
  5
4BA
 66
     1
 10
0.0
 20
0.0
 30
1.622404
 70
     1
210
0.034899496702501
220
0.0
230
0.9993908270190958
  0
VERTEX
  8
11COM09-MAIN
  5
4BB
 10
1.01512
 20
-12.406245
 30
1.622404
  0
VERTEX
  8
11COM09-MAIN
  5
4BC
 10
1.01512
 20
-13.244553
 30
1.622404
  0
VERTEX
  8
11COM09-MAIN
  5
4BD
 10
1.885878
 20
-13.244553
 30
1.622404
  0
VERTEX
  8
11COM09-MAIN
  5
4BE
 10
1.885878
 20
-12.406245
 30
1.622404
  0
SEQEND
  8
11COM09-MAIN
  5
4BF
  0
POLYLINE
  8
11COM09-MAIN
  5
4C0
 66
     1
 10
0.0
 20
0.0
 30
1.622404
 70
     1
210
0.034899496702501
220
0.0
230
0.9993908270190958
  0
VERTEX
  8
11COM09-MAIN
  5
4C1
 10
2.337186
 20
-12.406245
 30
1.622404
  0
VERTEX
  8
11COM09-MAIN
  5
4C2
 10
2.337186
 20
-13.244553
 30
1.622404
  0
VERTEX
  8
11COM09-MAIN
  5
4C3
 10
5.432624
 20
-13.244553
 30
1.622404
  0
VERTEX
  8
11COM09-MAIN
  5
4C4
 10
5.432624
 20
-12.406245
 30
1.622404
  0
SEQEND
  8
11COM09-MAIN
  5
4C5
  0
POLYLINE
  8
11COM09-MAIN
  5
4C6
 66
     1
 10
0.0
 20
0.0
 30
1.622404
 70
     1
210
0.034899496702501
220
0.0
230
0.9993908270190958
  0
VERTEX
  8
11COM09-MAIN
  5
4C7
 10
5.690514
 20
-12.406245
 30
1.622404
  0
VERTEX
  8
11COM09-MAIN
  5
4C8
 10
5.690514
 20
-13.244553
 30
1.622404
  0
VERTEX
  8
11COM09-MAIN
  5
4C9
 10
8.754096
 20
-13.244553
 30
1.622404
  0
VERTEX
  8
11COM09-MAIN
  5
4CA
 10
8.754096
 20
-12.406245
 30
1.622404
  0
SEQEND
  8
11COM09-MAIN
  5
4CB
  0
POLYLINE
  8
11COM09-MAIN
  5
4CC
 66
     1
 10
0.0
 20
0.0
 30
1.622404
 70
     1
210
0.034899496702501
220
0.0
230
0.9993908270190958
  0
VERTEX
  8
11COM09-MAIN
  5
4CD
 10
8.980129
 20
-12.406245
 30
1.622404
  0
VERTEX
  8
11COM09-MAIN
  5
4CE
 10
8.980129
 20
-13.244553
 30
1.622404
  0
VERTEX
  8
11COM09-MAIN
  5
4CF
 10
12.075568
 20
-13.244553
 30
1.622404
  0
VERTEX
  8
11COM09-MAIN
  5
4D0
 10
12.075568
 20
-12.406245
 30
1.622404
  0
SEQEND
  8
11COM09-MAIN
  5
4D1
  0
POLYLINE
  8
11COM09-MAIN
  5
4D2
 66
     1
 10
0.0
 20
0.0
 30
1.622404
 70
     1
210
0.034899496702501
220
0.0
230
0.9993908270190958
  0
VERTEX
  8
11COM09-MAIN
  5
4D3
 10
12.366073
 20
-12.406245
 30
1.622404
  0
VERTEX
  8
11COM09-MAIN
  5
4D4
 10
12.366073
 20
-13.244553
 30
1.622404
  0
VERTEX
  8
11COM09-MAIN
  5
4D5
 10
14.752314
 20
-13.244553
 30
1.622404
  0
VERTEX
  8
11COM09-MAIN
  5
4D6
 10
14.752314
 20
-12.406245
 30
1.622404
  0
SEQEND
  8
11COM09-MAIN
  5
4D7
  0
3DFACE
  8
11COM09-MAIN
  5
4D8
 10
12.358253
 20
0.636611
 30
1.191833
 11
12.455308
 21
1.01512
 31
1.188444
 12
17.772521
 22
1.01512
 32
1.002763
 13
17.854903
 23
0.636611
 33
0.999886
 70
     7
  0
3DFACE
  8
11COM09-MAIN
  5
4D9
 10
17.772521
 20
1.01512
 30
1.002763
 11
17.854903
 21
0.636611
 31
0.999886
 12
17.854903
 22
18.636611
 32
0.999886
 13
17.772521
 23
18.138258
 33
1.002763
 70
    13
  0
3DFACE
  8
11COM09-MAIN
  5
4DA
 10
17.854903
 20
18.636611
 30
0.999886
 11
17.772521
 21
18.138258
 31
1.002763
 12
12.451526
 22
18.141124
 32
1.188576
 13
12.358253
 23
18.636611
 33
1.191833
 70
     7
  0
3DFACE
  8
11COM09-MAIN
  5
4DB
 10
12.451526
 20
18.141124
 30
1.188576
 11
12.358253
 21
18.636611
 31
1.191833
 12
12.358253
 22
0.636611
 32
1.191833
 13
12.455308
 23
1.01512
 33
1.188444
 70
    13
  0
3DFACE
  8
11COM09-MAIN
  5
4DE
 10
13.293106
 20
12.366073
 30
1.159187
 11
13.873415
 21
12.366073
 31
1.138922
 12
13.873415
 22
14.752314
 32
1.138922
 13
13.293106
 23
14.752314
 33
1.159187
 70
     5
  0
3DFACE
  8
11COM09-MAIN
  5
4DF
 10
13.293106
 20
12.075568
 30
1.159187
 11
13.873415
 21
12.075568
 31
1.138922
 12
13.873415
 22
1.01512
 32
1.138922
 13
13.293106
 23
1.01512
 33
1.159187
 70
    13
  0
3DFACE
  8
11COM09-MAIN
  5
4E0
 10
13.293106
 20
2.337186
 30
1.159187
 11
13.293106
 21
1.885878
 31
1.159187
 12
12.455308
 22
1.885878
 32
1.188444
 13
12.455308
 23
2.337186
 33
1.188444
 70
     5
  0
3DFACE
  8
11COM09-MAIN
  5
4E1
 10
13.293106
 20
5.432624
 30
1.159187
 11
12.455308
 21
5.432624
 31
1.188444
 12
12.455308
 22
5.690514
 32
1.188444
 13
13.293106
 23
5.690514
 33
1.159187
 70
    10
  0
3DFACE
  8
11COM09-MAIN
  5
4E2
 10
13.293106
 20
8.754096
 30
1.159187
 11
12.455308
 21
8.754096
 31
1.188444
 12
12.455308
 22
8.980129
 32
1.188444
 13
13.293106
 23
8.980129
 33
1.159187
 70
    10
  0
3DFACE
  8
11COM09-MAIN
  5
4E3
 10
16.870489
 20
13.107886
 30
1.034262
 11
16.885599
 21
12.354039
 31
1.033735
 12
15.484775
 22
12.366073
 32
1.082652
 13
16.161162
 23
13.107886
 33
1.059033
 70
     6
  0
3DFACE
  8
11COM09-MAIN
  5
4E4
 10
15.484775
 20
12.366073
 30
1.082652
 11
16.161162
 21
13.107886
 31
1.059033
 12
16.161162
 22
13.978644
 32
1.059033
 13
15.484775
 23
14.752314
 33
1.082652
 70
     5
  0
3DFACE
  8
11COM09-MAIN
  5
4E5
 10
16.161162
 20
13.978644
 30
1.059033
 11
15.484775
 21
14.752314
 31
1.082652
 12
16.870489
 22
14.75003
 32
1.034262
 13
16.870489
 23
13.978644
 33
1.034262
 70
     3
  0
3DFACE
  8
11COM09-MAIN
  5
4E6
 10
16.870489
 20
14.75003
 30
1.034262
 11
16.870489
 21
13.978644
 31
1.034262
 12
16.870489
 22
13.978644
 32
1.034262
 13
16.870489
 23
13.978644
 33
1.034262
  0
3DFACE
  8
11COM09-MAIN
  5
4E7
 10
13.2124
 20
15.010185
 30
1.162006
 11
13.873415
 21
15.010204
 31
1.138922
 12
13.873415
 22
18.138258
 32
1.138922
 13
13.2124
 23
18.137584
 33
1.162006
 70
     5
  0
3DFACE
  8
11COM09-MAIN
  5
4E8
 10
17.031351
 20
10.173249
 30
1.028645
 11
17.031351
 21
10.946919
 31
1.028645
 12
17.772521
 22
10.946919
 32
1.002763
 13
17.772521
 23
10.173249
 33
1.002763
 70
     4
  0
3DFACE
  8
11COM09-MAIN
  5
4E9
 10
17.031351
 20
2.111153
 30
1.028645
 11
17.031351
 21
2.788493
 31
1.028645
 12
17.772521
 22
2.788493
 32
1.002763
 13
17.772521
 23
2.111153
 33
1.002763
 70
     4
  0
3DFACE
  8
11COM09-BODYLINES
  5
4EA
 10
12.353891
 20
0.636611
 30
0.941909
 11
12.353891
 21
18.636611
 31
0.941909
 12
17.85054
 22
18.636611
 32
0.749962
 13
17.85054
 23
0.636611
 33
0.749962
  0
3DFACE
  8
11COM09-MAIN
  5
4EB
 10
10.850541
 20
0.136611
 30
1.0
 11
12.350541
 21
0.636611
 31
1.0
 12
12.350541
 22
18.636611
 32
1.0
 13
10.850541
 23
19.136611
 33
1.0
 70
     5
  0
3DFACE
  8
11COM09-MAIN
  5
4EC
 10
12.350541
 20
18.636611
 30
1.0
 11
10.850541
 21
19.136611
 31
1.0
 12
18.350541
 22
19.136611
 32
1.0
 13
17.850541
 23
18.636611
 33
1.0
 70
     5
  0
3DFACE
  8
11COM09-MAIN
  5
4ED
 10
18.350541
 20
19.136611
 30
1.0
 11
17.850541
 21
18.636611
 31
1.0
 12
17.850541
 22
0.636611
 32
1.0
 13
18.350541
 23
0.136611
 33
1.0
 70
     5
  0
3DFACE
  8
11COM09-MAIN
  5
4EE
 10
17.850541
 20
0.636611
 30
1.0
 11
18.350541
 21
0.136611
 31
1.0
 12
10.850541
 22
0.136611
 32
1.0
 13
12.350541
 23
0.636611
 33
1.0
 70
     5
  0
3DFACE
  8
11COM09-MAIN
  5
4EF
 10
10.850541
 20
0.136611
 30
0.25
 11
10.850541
 21
19.136611
 31
0.25
 12
18.350541
 22
19.136611
 32
0.25
 13
18.350541
 23
0.136611
 33
0.25
  0
INSERT
  8
11COM09-MAIN
  5
4F1
  2
CUBE5
 10
13.2124
 20
15.010185
 30
1.162006
 41
3.130939
 42
0.760874
 50
90.0
 43
0.125
  0
LINE
  8
11COM09-MAIN
 39
-16.0
  5
4F2
 10
2.5
 20
18.125
 30
18.75
 11
2.5
 21
18.125
 31
0.75
210
1.0
220
0.0
230
0.0
  0
LINE
  8
11COM09-MAIN
  5
4F3
 10
2.75
 20
18.125
 30
0.75
 11
2.75
 21
24.875
 31
0.75
210
1.0
220
0.0
230
0.0
  0
LINE
  8
11COM09-MAIN
 39
-16.0
  5
4F4
 10
2.5
 20
24.875
 30
18.75
 11
2.5
 21
24.875
 31
0.75
210
1.0
220
0.0
230
0.0
  0
LINE
  8
11COM09-MAIN
 39
-16.0
  5
4F5
 10
2.5
 20
18.125
 30
18.75
 11
2.5
 21
24.875
 31
18.75
210
1.0
220
0.0
230
0.0
  0
LINE
  8
11COM09-MAIN
  5
4F6
 10
2.75
 20
18.25
 30
18.625
 11
2.75
 21
24.75
 31
18.625
210
1.0
220
0.0
230
0.0
  0
LINE
  8
11COM09-MAIN
  5
4F7
 10
2.75
 20
18.25
 30
18.625
 11
2.75
 21
18.25
 31
0.875
210
1.0
220
0.0
230
0.0
  0
LINE
  8
11COM09-MAIN
  5
4F8
 10
2.75
 20
24.75
 30
18.625
 11
2.75
 21
24.75
 31
0.875
210
1.0
220
0.0
230
0.0
  0
LINE
  8
11COM09-MAIN
  5
4F9
 10
2.75
 20
18.5
 30
12.563309
 11
2.75
 21
18.5
 31
9.313309
210
1.0
220
0.0
230
0.0
  0
LINE
  8
11COM09-MAIN
  5
4FA
 10
2.75
 20
24.5
 30
18.375
 11
2.75
 21
24.5
 31
13.063309
210
1.0
220
0.0
230
0.0
  0
LINE
  8
11COM09-MAIN
  5
4FB
 10
2.75
 20
18.5
 30
18.375
 11
2.75
 21
24.5
 31
18.375
210
1.0
220
0.0
230
0.0
  0
LINE
  8
11COM09-MAIN
  5
4FF
 10
2.75
 20
18.5
 30
13.063309
 11
2.75
 21
24.5
 31
13.063309
210
1.0
220
0.0
230
0.0
  0
LINE
  8
11COM09-MAIN
  5
500
 10
2.75
 20
18.5
 30
12.563309
 11
2.75
 21
22.625
 31
12.563309
210
1.0
220
0.0
230
0.0
  0
LINE
  8
11COM09-MAIN
  5
501
 10
2.75
 20
18.5625
 30
12.500809
 11
2.75
 21
22.5625
 31
12.500809
210
1.0
220
0.0
230
0.0
  0
LINE
  8
11COM09-MAIN
  5
502
 10
2.75
 20
18.5625
 30
11.500809
 11
2.75
 21
22.5625
 31
11.500809
210
1.0
220
0.0
230
0.0
  0
LINE
  8
11COM09-MAIN
  5
503
 10
2.75
 20
18.5625
 30
11.438309
 11
2.75
 21
22.5625
 31
11.438309
210
1.0
220
0.0
230
0.0
  0
LINE
  8
11COM09-MAIN
  5
504
 10
2.75
 20
23.125
 30
12.563309
 11
2.75
 21
23.125
 31
9.313309
210
1.0
220
0.0
230
0.0
  0
LINE
  8
11COM09-MAIN
  5
505
 10
2.75
 20
22.625
 30
12.563309
 11
2.75
 21
22.625
 31
9.313309
210
1.0
220
0.0
230
0.0
  0
LINE
  8
11COM09-MAIN
  5
506
 10
2.75
 20
22.5625
 30
12.500809
 11
2.75
 21
22.5625
 31
11.500809
210
1.0
220
0.0
230
0.0
  0
LINE
  8
11COM09-MAIN
  5
507
 10
2.75
 20
23.125
 30
12.563309
 11
2.75
 21
24.5
 31
12.563309
210
1.0
220
0.0
230
0.0
  0
LINE
  8
11COM09-MAIN
  5
508
 10
2.75
 20
18.5625
 30
12.500809
 11
2.75
 21
18.5625
 31
11.500809
210
1.0
220
0.0
230
0.0
  0
LINE
  8
11COM09-MAIN
  5
509
 10
2.75
 20
18.5
 30
18.576385
 11
2.75
 21
18.5
 31
13.063309
210
1.0
220
0.0
230
0.0
  0
LINE
  8
11COM09-MAIN
  5
50A
 10
2.75
 20
24.5
 30
12.563309
 11
2.75
 21
24.5
 31
9.313309
210
1.0
220
0.0
230
0.0
  0
LINE
  8
11COM09-MAIN
  5
50B
 10
2.75
 20
22.5625
 30
11.438309
 11
2.75
 21
22.5625
 31
10.438309
210
1.0
220
0.0
230
0.0
  0
LINE
  8
11COM09-MAIN
  5
50C
 10
2.75
 20
18.5625
 30
11.438309
 11
2.75
 21
18.5625
 31
10.438309
210
1.0
220
0.0
230
0.0
  0
LINE
  8
11COM09-MAIN
  5
50D
 10
2.75
 20
18.5625
 30
10.375809
 11
2.75
 21
22.5625
 31
10.375809
210
1.0
220
0.0
230
0.0
  0
LINE
  8
11COM09-MAIN
  5
50E
 10
2.75
 20
18.5625
 30
10.438309
 11
2.75
 21
22.5625
 31
10.438309
210
1.0
220
0.0
230
0.0
  0
LINE
  8
11COM09-MAIN
  5
50F
 10
2.75
 20
18.5
 30
9.313309
 11
2.75
 21
22.625
 31
9.313309
210
1.0
220
0.0
230
0.0
  0
LINE
  8
11COM09-MAIN
  5
510
 10
2.75
 20
18.5625
 30
9.375809
 11
2.75
 21
22.5625
 31
9.375809
210
1.0
220
0.0
230
0.0
  0
LINE
  8
11COM09-MAIN
  5
511
 10
2.75
 20
18.5625
 30
10.375809
 11
2.75
 21
18.5625
 31
9.375809
210
1.0
220
0.0
230
0.0
  0
LINE
  8
11COM09-MAIN
  5
512
 10
2.75
 20
22.5625
 30
10.375809
 11
2.75
 21
22.5625
 31
9.375809
210
1.0
220
0.0
230
0.0
  0
LINE
  8
11COM09-MAIN
  5
513
 10
2.75
 20
23.125
 30
9.313309
 11
2.75
 21
24.5
 31
9.313309
210
1.0
220
0.0
230
0.0
  0
LINE
  8
11COM09-MAIN
  5
514
 10
2.75
 20
18.5
 30
8.938309
 11
2.75
 21
18.5
 31
5.63484
210
1.0
220
0.0
230
0.0
  0
INSERT
  8
11COM09-MAIN
  5
515
  2
5CUBE
 10
18.5
 20
0.938309
 30
2.625
 41
0.125
 42
8.0
 43
0.125
210
1.0
220
0.0
230
0.0
  0
INSERT
  8
11COM09-MAIN
  5
516
  2
5CUBE
 10
19.06
 20
8.685451
 30
2.625
 41
0.125
 42
0.25
 43
0.125
210
1.0
220
0.0
230
0.0
  0
INSERT
  8
11COM09-MAIN
  5
517
  2
5CUBE
 10
19.06
 20
0.938309
 30
2.625
 41
0.125
 42
7.0
 43
0.125
210
1.0
220
0.0
230
0.0
  0
INSERT
  8
11COM09-MAIN
  5
518
  2
5CUBE
 10
21.02
 20
0.938309
 30
2.625
 41
0.125
 42
8.0
 43
0.125
210
1.0
220
0.0
230
0.0
  0
INSERT
  8
11COM09-MAIN
  5
519
  2
5CUBE
 10
21.3
 20
0.938309
 30
2.625
 41
0.125
 42
8.0
 43
0.125
210
1.0
220
0.0
230
0.0
  0
INSERT
  8
11COM09-MAIN
  5
51A
  2
5CUBE
 10
21.58
 20
0.938309
 30
2.625
 41
0.125
 42
8.0
 43
0.125
210
1.0
220
0.0
230
0.0
  0
INSERT
  8
11COM09-MAIN
  5
51B
  2
5CUBE
 10
21.86
 20
0.938309
 30
2.625
 41
0.125
 42
8.0
 43
0.125
210
1.0
220
0.0
230
0.0
  0
INSERT
  8
11COM09-MAIN
  5
51C
  2
5CUBE
 10
22.14
 20
0.938309
 30
2.625
 41
0.125
 42
8.0
 43
0.125
210
1.0
220
0.0
230
0.0
  0
INSERT
  8
11COM09-MAIN
  5
51D
  2
5CUBE
 10
22.42
 20
0.938309
 30
2.625
 41
0.125
 42
8.0
 43
0.125
210
1.0
220
0.0
230
0.0
  0
INSERT
  8
11COM09-MAIN
  5
51E
  2
5CUBE
 10
22.7
 20
0.938309
 30
2.625
 41
0.125
 42
8.0
 43
0.125
210
1.0
220
0.0
230
0.0
  0
INSERT
  8
11COM09-MAIN
  5
51F
  2
5CUBE
 10
22.98
 20
0.938309
 30
2.625
 41
0.125
 42
8.0
 43
0.125
210
1.0
220
0.0
230
0.0
  0
INSERT
  8
11COM09-MAIN
  5
520
  2
5CUBE
 10
23.26
 20
0.938309
 30
2.625
 41
0.125
 42
8.0
 43
0.125
210
1.0
220
0.0
230
0.0
  0
INSERT
  8
11COM09-MAIN
  5
521
  2
5CUBE
 10
23.54
 20
0.938309
 30
2.625
 41
0.125
 42
8.0
 43
0.125
210
1.0
220
0.0
230
0.0
  0
INSERT
  8
11COM09-MAIN
  5
522
  2
5CUBE
 10
23.82
 20
0.938309
 30
2.625
 41
0.125
 42
8.0
 43
0.125
210
1.0
220
0.0
230
0.0
  0
INSERT
  8
11COM09-MAIN
  5
523
  2
5CUBE
 10
24.1
 20
0.938309
 30
2.625
 41
0.125
 42
8.0
 43
0.125
210
1.0
220
0.0
230
0.0
  0
INSERT
  8
11COM09-MAIN
  5
524
  2
5CUBE
 10
24.38
 20
0.938309
 30
2.625
 41
0.125
 42
8.0
 43
0.125
210
1.0
220
0.0
230
0.0
  0
INSERT
  8
11COM09-MAIN
  5
525
  2
5CUBE
 10
18.782707
 20
8.063309
 30
2.625
 41
2.08
 42
0.5
 43
0.125
210
1.0
220
0.0
230
0.0
  0
LINE
  8
11COM09-MAIN
  5
526
 10
2.75
 20
18.5
 30
9.313309
 11
2.75
 21
22.625
 31
9.313309
210
1.0
220
0.0
230
0.0
  0
INSERT
  8
11COM09-MAIN
  5
527
  2
5CUBE
 10
18.78
 20
8.685451
 30
2.625
 41
0.125
 42
0.25
 43
0.125
210
1.0
220
0.0
230
0.0
  0
INSERT
  8
11COM09-MAIN
  5
528
  2
5CUBE
 10
18.78
 20
0.938309
 30
2.625
 41
0.125
 42
7.0
 43
0.125
210
1.0
220
0.0
230
0.0
  0
INSERT
  8
11COM09-MAIN
  5
529
  2
5CUBE
 10
19.34
 20
8.685451
 30
2.625
 41
0.125
 42
0.25
 43
0.125
210
1.0
220
0.0
230
0.0
  0
INSERT
  8
11COM09-MAIN
  5
52A
  2
5CUBE
 10
19.34
 20
0.938309
 30
2.625
 41
0.125
 42
7.0
 43
0.125
210
1.0
220
0.0
230
0.0
  0
INSERT
  8
11COM09-MAIN
  5
52B
  2
5CUBE
 10
19.62
 20
8.685451
 30
2.625
 41
0.125
 42
0.25
 43
0.125
210
1.0
220
0.0
230
0.0
  0
INSERT
  8
11COM09-MAIN
  5
52C
  2
5CUBE
 10
19.62
 20
0.938309
 30
2.625
 41
0.125
 42
7.0
 43
0.125
210
1.0
220
0.0
230
0.0
  0
INSERT
  8
11COM09-MAIN
  5
52D
  2
5CUBE
 10
19.9
 20
8.685451
 30
2.625
 41
0.125
 42
0.25
 43
0.125
210
1.0
220
0.0
230
0.0
  0
INSERT
  8
11COM09-MAIN
  5
52E
  2
5CUBE
 10
19.9
 20
0.938309
 30
2.625
 41
0.125
 42
7.0
 43
0.125
210
1.0
220
0.0
230
0.0
  0
INSERT
  8
11COM09-MAIN
  5
52F
  2
5CUBE
 10
20.18
 20
8.685451
 30
2.625
 41
0.125
 42
0.25
 43
0.125
210
1.0
220
0.0
230
0.0
  0
INSERT
  8
11COM09-MAIN
  5
530
  2
5CUBE
 10
20.18
 20
0.938309
 30
2.625
 41
0.125
 42
7.0
 43
0.125
210
1.0
220
0.0
230
0.0
  0
INSERT
  8
11COM09-MAIN
  5
531
  2
5CUBE
 10
20.46
 20
8.685451
 30
2.625
 41
0.125
 42
0.25
 43
0.125
210
1.0
220
0.0
230
0.0
  0
INSERT
  8
11COM09-MAIN
  5
532
  2
5CUBE
 10
20.46
 20
0.938309
 30
2.625
 41
0.125
 42
7.0
 43
0.125
210
1.0
220
0.0
230
0.0
  0
INSERT
  8
11COM09-MAIN
  5
533
  2
5CUBE
 10
20.74
 20
8.685451
 30
2.625
 41
0.125
 42
0.25
 43
0.125
210
1.0
220
0.0
230
0.0
  0
INSERT
  8
11COM09-MAIN
  5
534
  2
5CUBE
 10
20.74
 20
0.938309
 30
2.625
 41
0.125
 42
7.0
 43
0.125
210
1.0
220
0.0
230
0.0
  0
INSERT
  8
11COM09-MAIN
  5
535
  2
5CUBE
 10
23.125
 20
9.313309
 30
2.75
 41
1.375
 42
3.25
 43
0.125
210
1.0
220
0.0
230
0.0
  0
3DFACE
  8
11COM09-MAIN
  5
536
 10
2.5
 20
18.125
 30
0.75
 11
2.75
 21
18.25
 31
0.875
 12
2.75
 22
18.25
 32
18.625
 13
2.5
 23
18.125
 33
18.75
  0
3DFACE
  8
11COM09-MAIN
  5
537
 10
2.75
 20
18.25
 30
18.625
 11
2.5
 21
18.125
 31
18.75
 12
2.5
 22
24.875
 32
18.75
 13
2.75
 23
24.75
 33
18.625
  0
3DFACE
  8
11COM09-MAIN
  5
538
 10
2.75
 20
24.75
 30
18.625
 11
2.5
 21
24.875
 31
18.75
 12
2.5
 22
24.875
 32
0.75
 13
2.75
 23
24.751513
 33
0.938309
  0
LINE
  8
11COM09-MAIN
  5
539
 10
2.75
 20
18.75
 30
12.250809
 11
2.75
 21
18.75
 31
11.688309
210
1.0
220
0.0
230
0.0
  0
LINE
  8
11COM09-MAIN
  5
53A
 10
2.75
 20
18.75
 30
11.688309
 11
2.75
 21
19.625
 31
11.688309
210
1.0
220
0.0
230
0.0
  0
LINE
  8
11COM09-MAIN
  5
53B
 10
2.75
 20
18.75
 30
12.250809
 11
2.75
 21
19.625
 31
12.250809
210
1.0
220
0.0
230
0.0
  0
LINE
  8
11COM09-MAIN
  5
53C
 10
2.75
 20
22.3125
 30
12.250809
 11
2.75
 21
22.3125
 31
11.688309
210
1.0
220
0.0
230
0.0
  0
LINE
  8
11COM09-MAIN
  5
53D
 10
2.75
 20
21.4375
 30
12.250809
 11
2.75
 21
21.4375
 31
11.688309
210
1.0
220
0.0
230
0.0
  0
LINE
  8
11COM09-MAIN
  5
53E
 10
2.75
 20
19.625
 30
12.250809
 11
2.75
 21
19.625
 31
11.688309
210
1.0
220
0.0
230
0.0
  0
LINE
  8
11COM09-MAIN
  5
53F
 10
2.75
 20
19.75
 30
12.250809
 11
2.75
 21
19.75
 31
11.688309
210
1.0
220
0.0
230
0.0
  0
LINE
  8
11COM09-MAIN
  5
540
 10
2.75
 20
20.625
 30
12.250809
 11
2.75
 21
20.625
 31
11.688309
210
1.0
220
0.0
230
0.0
  0
LINE
  8
11COM09-MAIN
  5
541
 10
2.75
 20
21.4375
 30
11.688309
 11
2.75
 21
22.3125
 31
11.688309
210
1.0
220
0.0
230
0.0
  0
LINE
  8
11COM09-MAIN
  5
542
 10
2.75
 20
21.4375
 30
12.250809
 11
2.75
 21
22.3125
 31
12.250809
210
1.0
220
0.0
230
0.0
  0
LINE
  8
11COM09-MAIN
  5
543
 10
2.75
 20
19.75
 30
12.250809
 11
2.75
 21
20.625
 31
12.250809
210
1.0
220
0.0
230
0.0
  0
LINE
  8
11COM09-MAIN
  5
544
 10
2.75
 20
19.75
 30
11.688309
 11
2.75
 21
20.625
 31
11.688309
210
1.0
220
0.0
230
0.0
  0
INSERT
  8
11COM09-MAIN
  5
545
  2
5CUBE
 10
18.75
 20
11.688309
 30
2.75
 41
0.875
 42
0.5625
 43
-0.125
210
1.0
220
0.0
230
0.0
  0
INSERT
  8
11COM09-MAIN
  5
546
  2
5CUBE
 10
19.750023
 20
11.688309
 30
2.75
 41
0.875
 42
0.5625
 43
-0.125
210
1.0
220
0.0
230
0.0
  0
INSERT
  8
11COM09-DARK
  5
547
  2
5CUBE
 10
21.437686
 20
11.688309
 30
2.75
 41
0.875
 42
0.5625
 43
-0.125
210
1.0
220
0.0
230
0.0
  0
INSERT
  8
11COM09-LIGHTS3
  5
548
  2
5CUBE
 10
20.758959
 20
11.688309
 30
2.75
 41
0.18
 42
0.125
 43
-0.05
210
1.0
220
0.0
230
0.0
  0
INSERT
  8
11COM09-LIGHTS2
  5
549
  2
5CUBE
 10
20.758959
 20
11.917138
 30
2.75
 41
0.18
 42
0.125
 43
-0.05
210
1.0
220
0.0
230
0.0
  0
INSERT
  8
11COM09-LIGHTS1
  5
54A
  2
5CUBE
 10
20.758959
 20
12.126719
 30
2.75
 41
0.18
 42
0.125
 43
-0.05
210
1.0
220
0.0
230
0.0
  0
3DFACE
  8
11COM09-MAIN
  5
54B
 10
2.75
 20
18.5625
 30
11.500809
 11
2.75
 21
18.5625
 31
12.500809
 12
2.75
 22
22.5625
 32
12.500809
 13
2.75
 23
22.5625
 33
11.500809
  0
INSERT
  8
11COM09-LIGHTS1
  5
54E
  2
5CUBE
 10
19.750483
 20
10.561745
 30
2.75
 41
0.18
 42
0.125
 43
-0.05
210
1.0
220
0.0
230
0.0
  0
INSERT
  8
11COM09-LIGHTS1
  5
54F
  2
5CUBE
 10
19.750483
 20
9.501066
 30
2.75
 41
0.18
 42
0.125
 43
-0.05
210
1.0
220
0.0
230
0.0
  0
INSERT
  8
11COM09-MAIN
  5
550
  2
5CUBE
 10
23.236537
 20
11.299775
 30
2.625
 41
1.125
 42
1.125
 43
-0.125
210
1.0
220
0.0
230
0.0
  0
INSERT
  8
11COM09-BUTTON
  5
551
  2
5CUBE
 10
23.349556
 20
11.706801
 30
-0.59711
 41
0.9
 42
0.9
 43
-0.25
210
0.9642308888919917
220
0.0
230
-0.2650637525324038
  0
LINE
  8
11COM09-MAIN
  5
553
 10
2.875
 20
16.268604
 30
-0.016292
 11
2.875
 21
16.268604
 31
0.481233
210
1.0
220
0.0
230
0.0
  0
LINE
  8
11COM09-MAIN
  5
554
 10
2.875
 20
16.268604
 30
0.481233
 11
2.875
 21
18.155982
 31
0.858708
210
1.0
220
0.0
230
0.0
  0
LINE
  8
11COM09-MAIN
  5
555
 10
2.875
 20
18.155982
 30
0.858708
 11
2.875
 21
24.861398
 31
0.858708
210
1.0
220
0.0
230
0.0
  0
LINE
  8
11COM09-MAIN
  5
556
 10
2.875
 20
24.861398
 30
0.858708
 11
2.875
 21
26.748775
 31
0.481233
210
1.0
220
0.0
230
0.0
  0
LINE
  8
11COM09-MAIN
  5
557
 10
2.875
 20
26.748775
 30
0.481233
 11
2.875
 21
26.748775
 31
-0.016292
210
1.0
220
0.0
230
0.0
  0
LINE
  8
11COM09-MAIN
 39
-16.5
  5
558
 10
2.75
 20
16.143604
 30
-0.016292
 11
2.75
 21
16.143604
 31
0.583708
210
1.0
220
0.0
230
0.0
  0
LINE
  8
11COM09-MAIN
 39
-16.5
  5
559
 10
2.75
 20
16.143604
 30
0.583708
 11
2.75
 21
18.143604
 31
0.983708
210
1.0
220
0.0
230
0.0
  0
LINE
  8
11COM09-MAIN
  5
55A
 10
2.75
 20
18.143604
 30
0.983708
 11
2.75
 21
24.873775
 31
0.983708
210
1.0
220
0.0
230
0.0
  0
LINE
  8
11COM09-MAIN
 39
-16.5
  5
55B
 10
2.75
 20
24.873775
 30
0.983708
 11
2.75
 21
26.873775
 31
0.583708
210
1.0
220
0.0
230
0.0
  0
LINE
  8
11COM09-MAIN
 39
-16.5
  5
55C
 10
2.75
 20
26.873775
 30
0.583708
 11
2.75
 21
26.873775
 31
-0.016292
210
1.0
220
0.0
230
0.0
  0
LINE
  8
11COM09-MAIN
  5
55D
 10
2.75
 20
26.873775
 30
-0.016292
 11
2.75
 21
16.143604
 31
-0.016292
210
1.0
220
0.0
230
0.0
  0
3DFACE
  8
11COM09-MAIN
  5
55E
 10
2.875
 20
16.268604
 30
-0.016292
 11
2.75
 21
16.143604
 31
-0.016292
 12
2.75
 22
16.143604
 32
0.583708
 13
2.875
 23
16.268604
 33
0.481233
  0
3DFACE
  8
11COM09-MAIN
  5
55F
 10
2.75
 20
16.143604
 30
0.583708
 11
2.875
 21
16.268604
 31
0.481233
 12
2.875
 22
18.155982
 32
0.858708
 13
2.75
 23
18.143604
 33
0.983708
  0
3DFACE
  8
11COM09-MAIN
  5
560
 10
2.875
 20
18.155982
 30
0.858708
 11
2.75
 21
18.143604
 31
0.983708
 12
2.75
 22
24.873775
 32
0.983708
 13
2.875
 23
24.861398
 33
0.858708
  0
3DFACE
  8
11COM09-MAIN
  5
561
 10
2.75
 20
24.873775
 30
0.983708
 11
2.875
 21
24.861398
 31
0.858708
 12
2.875
 22
26.748775
 32
0.481233
 13
2.75
 23
26.873775
 33
0.583708
  0
3DFACE
  8
11COM09-MAIN
  5
562
 10
2.875
 20
26.748775
 30
0.481233
 11
2.75
 21
26.873775
 31
0.583708
 12
2.75
 22
26.873775
 32
-0.016292
 13
2.875
 23
26.748775
 33
-0.016292
  0
3DFACE
  8
11COM09-MAIN
  5
564
 10
2.625
 20
18.625
 30
8.938309
 11
2.625
 21
18.625
 31
0.938309
 12
2.625
 22
18.78
 32
0.938309
 13
2.625
 23
18.78
 33
8.935451
  0
3DFACE
  8
11COM09-MAIN
  5
565
 10
2.625
 20
18.905
 30
7.94285
 11
2.625
 21
18.905
 31
0.938309
 12
2.625
 22
19.06
 32
0.938309
 13
2.625
 23
19.06
 33
7.939992
  0
3DFACE
  8
11COM09-MAIN
  5
566
 10
2.625
 20
19.185
 30
7.94285
 11
2.625
 21
19.185
 31
0.938309
 12
2.625
 22
19.34
 32
0.938309
 13
2.625
 23
19.34
 33
7.939992
  0
3DFACE
  8
11COM09-MAIN
  5
567
 10
2.625
 20
19.465
 30
7.94285
 11
2.625
 21
19.465
 31
0.938309
 12
2.625
 22
19.62
 32
0.938309
 13
2.625
 23
19.62
 33
7.939992
  0
3DFACE
  8
11COM09-MAIN
  5
568
 10
2.625
 20
19.745
 30
7.94285
 11
2.625
 21
19.745
 31
0.938309
 12
2.625
 22
19.9
 32
0.938309
 13
2.625
 23
19.9
 33
7.939992
  0
3DFACE
  8
11COM09-MAIN
  5
569
 10
2.625
 20
20.025
 30
7.94285
 11
2.625
 21
20.025
 31
0.938309
 12
2.625
 22
20.18
 32
0.938309
 13
2.625
 23
20.18
 33
7.939992
  0
3DFACE
  8
11COM09-MAIN
  5
56A
 10
2.625
 20
20.305
 30
7.94285
 11
2.625
 21
20.305
 31
0.938309
 12
2.625
 22
20.46
 32
0.938309
 13
2.625
 23
20.46
 33
7.939992
  0
3DFACE
  8
11COM09-MAIN
  5
56B
 10
2.625
 20
20.585
 30
7.94285
 11
2.625
 21
20.585
 31
0.938309
 12
2.625
 22
20.74
 32
0.938309
 13
2.625
 23
20.74
 33
7.939992
  0
3DFACE
  8
11COM09-MAIN
  5
56C
 10
2.625
 20
20.865
 30
8.938309
 11
2.625
 21
20.865
 31
0.938309
 12
2.625
 22
21.02
 32
0.938309
 13
2.625
 23
21.02
 33
8.935451
  0
3DFACE
  8
11COM09-MAIN
  5
56D
 10
2.625
 20
21.145
 30
8.938309
 11
2.625
 21
21.145
 31
0.938309
 12
2.625
 22
21.3
 32
0.938309
 13
2.625
 23
21.3
 33
8.935451
  0
3DFACE
  8
11COM09-MAIN
  5
56E
 10
2.625
 20
21.425
 30
8.938309
 11
2.625
 21
21.425
 31
0.938309
 12
2.625
 22
21.58
 32
0.938309
 13
2.625
 23
21.58
 33
8.935451
  0
3DFACE
  8
11COM09-MAIN
  5
56F
 10
2.625
 20
21.705
 30
8.938309
 11
2.625
 21
21.705
 31
0.938309
 12
2.625
 22
21.86
 32
0.938309
 13
2.625
 23
21.86
 33
8.935451
  0
3DFACE
  8
11COM09-MAIN
  5
570
 10
2.625
 20
21.985
 30
8.938309
 11
2.625
 21
21.985
 31
0.938309
 12
2.625
 22
22.14
 32
0.938309
 13
2.625
 23
22.14
 33
8.935451
  0
3DFACE
  8
11COM09-MAIN
  5
571
 10
2.625
 20
22.265
 30
8.938309
 11
2.625
 21
22.265
 31
0.938309
 12
2.625
 22
22.42
 32
0.938309
 13
2.625
 23
22.42
 33
8.935451
  0
3DFACE
  8
11COM09-MAIN
  5
572
 10
2.625
 20
22.545
 30
8.938309
 11
2.625
 21
22.545
 31
0.938309
 12
2.625
 22
22.7
 32
0.938309
 13
2.625
 23
22.7
 33
8.935451
  0
3DFACE
  8
11COM09-MAIN
  5
573
 10
2.625
 20
22.825
 30
8.938309
 11
2.625
 21
22.825
 31
0.938309
 12
2.625
 22
22.98
 32
0.938309
 13
2.625
 23
22.98
 33
8.935451
  0
3DFACE
  8
11COM09-MAIN
  5
574
 10
2.625
 20
23.105
 30
8.938309
 11
2.625
 21
23.105
 31
0.938309
 12
2.625
 22
23.26
 32
0.938309
 13
2.625
 23
23.26
 33
8.935451
  0
3DFACE
  8
11COM09-MAIN
  5
575
 10
2.625
 20
23.385
 30
8.938309
 11
2.625
 21
23.385
 31
0.938309
 12
2.625
 22
23.54
 32
0.938309
 13
2.625
 23
23.54
 33
8.935451
  0
3DFACE
  8
11COM09-MAIN
  5
576
 10
2.625
 20
23.665
 30
8.938309
 11
2.625
 21
23.665
 31
0.938309
 12
2.625
 22
23.82
 32
0.938309
 13
2.625
 23
23.82
 33
8.935451
  0
3DFACE
  8
11COM09-MAIN
  5
577
 10
2.625
 20
18.905
 30
8.935451
 11
2.625
 21
18.905
 31
8.685451
 12
2.625
 22
19.06
 32
8.685451
 13
2.625
 23
19.06
 33
8.935451
  0
3DFACE
  8
11COM09-MAIN
  5
578
 10
2.625
 20
19.185
 30
8.935451
 11
2.625
 21
19.185
 31
8.685451
 12
2.625
 22
19.34
 32
8.685451
 13
2.625
 23
19.34
 33
8.935451
  0
3DFACE
  8
11COM09-MAIN
  5
579
 10
2.625
 20
19.465
 30
8.935451
 11
2.625
 21
19.465
 31
8.685451
 12
2.625
 22
19.62
 32
8.685451
 13
2.625
 23
19.62
 33
8.935451
  0
3DFACE
  8
11COM09-MAIN
  5
57A
 10
2.625
 20
19.745
 30
8.935451
 11
2.625
 21
19.745
 31
8.685451
 12
2.625
 22
19.9
 32
8.685451
 13
2.625
 23
19.9
 33
8.935451
  0
3DFACE
  8
11COM09-MAIN
  5
57B
 10
2.625
 20
20.025
 30
8.935451
 11
2.625
 21
20.025
 31
8.685451
 12
2.625
 22
20.18
 32
8.685451
 13
2.625
 23
20.18
 33
8.935451
  0
3DFACE
  8
11COM09-MAIN
  5
57C
 10
2.625
 20
20.305
 30
8.935451
 11
2.625
 21
20.305
 31
8.685451
 12
2.625
 22
20.46
 32
8.685451
 13
2.625
 23
20.46
 33
8.935451
  0
3DFACE
  8
11COM09-MAIN
  5
57D
 10
2.625
 20
20.585
 30
8.935451
 11
2.625
 21
20.585
 31
8.685451
 12
2.625
 22
20.74
 32
8.685451
 13
2.625
 23
20.74
 33
8.935451
  0
3DFACE
  8
11COM09-MAIN
  5
57E
 10
2.75
 20
18.5
 30
9.313309
 11
2.75
 21
18.5
 31
8.938309
 12
2.625
 22
24.505
 32
8.938309
 13
2.75
 23
24.5
 33
9.313309
  0
3DFACE
  8
11COM09-MAIN
  5
57F
 10
2.75
 20
22.625
 30
12.563309
 11
2.75
 21
23.125
 31
12.563309
 12
2.75
 22
23.125
 32
9.313309
 13
2.75
 23
22.625
 33
9.313309
  0
3DFACE
  8
11COM09-MAIN
  5
580
 10
2.75
 20
24.5
 30
12.563309
 11
2.75
 21
24.5
 31
13.063309
 12
2.75
 22
18.5
 32
13.063309
 13
2.75
 23
18.5
 33
12.563309
  0
3DFACE
  8
11COM09-MAIN
  5
581
 10
2.75
 20
18.25
 30
0.875
 11
2.625
 21
18.5
 31
0.938309
 12
2.75
 22
18.5
 32
18.375
 13
2.75
 23
18.25
 33
18.625
  0
3DFACE
  8
11COM09-MAIN
  5
582
 10
2.75
 20
18.5
 30
18.375
 11
2.75
 21
18.25
 31
18.625
 12
2.75
 22
24.75
 32
18.625
 13
2.75
 23
24.5
 33
18.375
  0
3DFACE
  8
11COM09-MAIN
  5
583
 10
2.75
 20
24.75
 30
18.625
 11
2.75
 21
24.5
 31
18.375
 12
2.625
 22
24.505
 32
0.938309
 13
2.75
 23
24.75
 33
0.875
  0
3DFACE
  8
11COM09-MAIN
  5
584
 10
2.625
 20
23.945
 30
8.941167
 11
2.625
 21
23.945
 31
0.941167
 12
2.625
 22
24.1
 32
0.941167
 13
2.625
 23
24.1
 33
8.938309
  0
3DFACE
  8
11COM09-MAIN
  5
585
 10
2.625
 20
24.225
 30
8.941167
 11
2.625
 21
24.225
 31
0.941167
 12
2.625
 22
24.38
 32
0.941167
 13
2.625
 23
24.38
 33
8.938309
  0
3DFACE
  8
11COM09-MAIN
  5
586
 10
2.625
 20
18.782707
 30
8.563309
 11
2.625
 21
18.78
 31
8.685451
 12
2.625
 22
20.865
 32
8.685451
 13
2.625
 23
20.862707
 33
8.563309
  0
3DFACE
  8
11COM09-MAIN
  5
587
 10
2.625
 20
20.862707
 30
8.063309
 11
2.625
 21
20.865
 31
7.938309
 12
2.625
 22
18.78
 32
7.938309
 13
2.625
 23
18.782707
 33
8.063309
  0
3DFACE
  8
11COM09-BODYLINES
  5
588
 10
2.119098
 20
18.380376
 30
18.527842
 11
2.119098
 21
24.618746
 31
18.527842
 12
2.119098
 22
24.618746
 32
0.507749
 13
2.119098
 23
18.380376
 33
0.507749
  0
3DFACE
  8
11COM09-MAIN
  5
5B7
 10
2.875
 20
16.268604
 30
-0.016292
 11
2.875
 21
16.268604
 31
0.481233
 12
2.875
 22
18.155982
 32
0.858708
 13
2.75
 23
18.155982
 33
-0.016292
 70
     4
  0
3DFACE
  8
11COM09-MAIN
  5
5B8
 10
2.875
 20
26.748775
 30
-0.016292
 11
2.875
 21
26.748775
 31
0.481233
 12
2.875
 22
24.861398
 32
0.858708
 13
2.75
 23
24.861398
 33
-0.016292
 70
     4
  0
3DFACE
  8
11COM09-MAIN
  5
5B9
 10
2.75
 20
24.861398
 30
-0.016292
 11
2.875
 21
24.861398
 31
0.858708
 12
2.875
 22
18.155982
 32
0.858708
 13
2.75
 23
18.155982
 33
-0.016292
 70
     5
  0
3DFACE
  8
11COM09-BODYLINES
  5
5BA
 10
2.75
 20
23.624873
 30
9.965489
 11
2.75
 21
23.999393
 31
9.965489
 12
2.75
 22
23.999393
 32
10.455318
 13
2.75
 23
23.624873
 33
10.455318
  0
LINE
  8
11COM09-MAIN
  5
CA1
 10
4.668817
 20
-2.719295
 30
16.603435
 11
6.15021
 21
-2.35694
 31
4.196817
210
0.9641065590054773
220
0.2358246259437858
230
0.1220052813655689
  0
LINE
  8
11COM09-MAIN
  5
CA2
 10
6.120438
 20
-2.106852
 30
3.948684
 11
2.615844
 21
12.220755
 31
3.948684
210
0.9641065590054773
220
0.2358246259437858
230
0.1220052813655689
  0
LINE
  8
11COM09-MAIN
  5
CA3
 10
1.045423
 20
12.093993
 30
16.603435
 11
2.526816
 21
12.456349
 31
4.196817
210
0.9641065590054773
220
0.2358246259437858
230
0.1220052813655689
  0
LINE
  8
11COM09-MAIN
  5
CA4
 10
4.579789
 20
-2.483701
 30
16.851567
 11
1.075195
 21
11.843906
 31
16.851567
210
0.9641065590054773
220
0.2358246259437858
230
0.1220052813655689
  0
LINE
  8
11COM09-MAIN
  5
CA5
 10
4.549585
 20
-1.461608
 30
15.114641
 11
5.675443
 21
-1.186219
 31
5.685611
210
0.9641065590054773
220
0.2358246259437858
230
0.1220052813655689
  0
LINE
  8
11COM09-MAIN
  5
CA6
 10
1.520189
 20
10.923272
 30
15.114641
 11
2.646048
 21
11.198662
 31
5.685611
210
0.9641065590054773
220
0.2358246259437858
230
0.1220052813655689
  0
LINE
  8
11COM09-MAIN
  5
CA7
 10
4.505071
 20
-1.343812
 30
15.238707
 11
1.535075
 21
10.798228
 31
15.238707
210
0.9641065590054773
220
0.2358246259437858
230
0.1220052813655689
  0
LINE
  8
11COM09-MAIN
  5
CA8
 10
5.660557
 20
-1.061175
 30
5.561545
 11
2.690562
 21
11.080865
 31
5.561545
210
0.9641065590054773
220
0.2358246259437858
230
0.1220052813655689
  0
LINE
  8
11COM09-MAIN
  5
CA9
 10
3.752075
 20
-1.013257
 30
14.402806
 11
4.729794
 21
-0.774103
 31
6.214438
210
0.9641065590054773
220
0.2358246259437858
230
0.1220052813655689
  0
LINE
  8
11COM09-MAIN
  5
CAA
 10
1.019679
 20
10.157419
 30
14.402806
 11
1.997398
 21
10.396574
 31
6.214438
210
0.9641065590054773
220
0.2358246259437858
230
0.1220052813655689
  0
LINE
  8
11COM09-MAIN
  5
CAB
 10
3.707561
 20
-0.89546
 30
14.526872
 11
1.034565
 21
10.032375
 31
14.526872
210
0.9641065590054773
220
0.2358246259437858
230
0.1220052813655689
  0
LINE
  8
11COM09-MAIN
  5
CAC
 10
4.714908
 20
-0.649059
 30
6.090372
 11
2.041912
 21
10.278777
 31
6.090372
210
0.9641065590054773
220
0.2358246259437858
230
0.1220052813655689
  0
LINE
  8
11COM09-MAIN
 39
-15.0
  5
CAD
 10
1.918964
 20
11.020814
 30
3.578547
 11
2.007848
 21
11.042555
 31
2.83415
210
0.9641065590054773
220
0.2358246259437858
230
0.1220052813655689
  0
LINE
  8
11COM09-MAIN
 39
-15.0
  5
CAE
 10
4.94836
 20
-1.364066
 30
3.578547
 11
5.037243
 21
-1.342325
 31
2.83415
210
0.9641065590054773
220
0.2358246259437858
230
0.1220052813655689
  0
LINE
  8
11COM09-MAIN
 39
-15.0
  5
CAF
 10
5.037243
 20
-1.342325
 30
2.83415
 11
2.007848
 21
11.042555
 31
2.83415
210
0.9641065590054773
220
0.2358246259437858
230
0.1220052813655689
  0
ARC
  8
11COM09-MAIN
  5
CB0
 10
9.499268
 20
13.879918
 30
5.135667
 40
0.125
 50
0.0
 51
90.0
210
0.9641065590054773
220
0.2358246259437858
230
0.1220052813655689
  0
ARC
  8
11COM09-MAIN
  5
CB1
 10
10.124268
 20
14.504918
 30
5.885667
 40
0.125
 50
0.0
 51
90.0
210
0.9641065590054773
220
0.2358246259437858
230
0.1220052813655689
  0
ARC
  8
11COM09-MAIN
  5
CB2
 10
10.124268
 20
5.004918
 30
5.885667
 40
0.125
 50
270.0
 51
0.0
210
0.9641065590054773
220
0.2358246259437858
230
0.1220052813655689
  0
ARC
  8
11COM09-MAIN
  5
CB3
 10
9.499268
 20
5.629918
 30
5.135667
 40
0.125
 50
270.0
 51
0.0
210
0.9641065590054773
220
0.2358246259437858
230
0.1220052813655689
  0
ARC
  8
11COM09-MAIN
  5
CB4
 10
-1.750732
 20
13.879918
 30
5.135667
 40
0.125
 50
90.0
 51
180.0
210
0.9641065590054773
220
0.2358246259437858
230
0.1220052813655689
  0
ARC
  8
11COM09-MAIN
  5
CB5
 10
-2.375732
 20
14.504918
 30
5.885667
 40
0.125
 50
90.0
 51
180.0
210
0.9641065590054773
220
0.2358246259437858
230
0.1220052813655689
  0
3DFACE
  8
11COM09-MAIN
  5
CB6
 10
4.505071
 20
-1.343812
 30
15.238707
 11
4.579789
 21
-2.483701
 31
16.851567
 12
1.075195
 22
11.843906
 32
16.851567
 13
1.535075
 23
10.798228
 33
15.238707
  0
3DFACE
  8
11COM09-MAIN
  5
CB7
 10
1.075195
 20
11.843906
 30
16.851567
 11
1.535075
 21
10.798228
 31
15.238707
 12
1.520189
 22
10.923272
 32
15.114641
 13
1.045423
 23
12.093993
 33
16.603435
  0
3DFACE
  8
11COM09-MAIN
  5
CB8
 10
1.520189
 20
10.923272
 30
15.114641
 11
1.045423
 21
12.093993
 31
16.603435
 12
2.526816
 22
12.456349
 32
4.196817
 13
2.646048
 23
11.198662
 33
5.685611
  0
3DFACE
  8
11COM09-MAIN
  5
CB9
 10
2.526816
 20
12.456349
 30
4.196817
 11
2.646048
 21
11.198662
 31
5.685611
 12
2.690562
 22
11.080865
 32
5.561545
 13
2.615844
 23
12.220755
 33
3.948684
  0
3DFACE
  8
11COM09-MAIN
  5
CBA
 10
2.690562
 20
11.080865
 30
5.561545
 11
2.615844
 21
12.220755
 31
3.948684
 12
6.120438
 22
-2.106852
 32
3.948684
 13
5.660557
 23
-1.061175
 33
5.561545
  0
3DFACE
  8
11COM09-MAIN
  5
CBB
 10
6.120438
 20
-2.106852
 30
3.948684
 11
5.660557
 21
-1.061175
 31
5.561545
 12
5.675443
 22
-1.186219
 32
5.685611
 13
6.15021
 23
-2.35694
 33
4.196817
  0
3DFACE
  8
11COM09-MAIN
  5
CBC
 10
5.675443
 20
-1.186219
 30
5.685611
 11
6.15021
 21
-2.35694
 31
4.196817
 12
4.668817
 22
-2.719295
 32
16.603435
 13
4.549585
 23
-1.461608
 33
15.114641
  0
3DFACE
  8
11COM09-MAIN
  5
CBD
 10
4.668817
 20
-2.719295
 30
16.603435
 11
4.549585
 21
-1.461608
 31
15.114641
 12
4.505071
 22
-1.343812
 32
15.238707
 13
4.579789
 23
-2.483701
 33
16.851567
  0
3DFACE
  8
11COM09-MAIN
  5
CBE
 10
3.707561
 20
-0.89546
 30
14.526872
 11
4.505071
 21
-1.343812
 31
15.238707
 12
1.535075
 22
10.798228
 32
15.238707
 13
1.034565
 23
10.032375
 33
14.526872
  0
3DFACE
  8
11COM09-MAIN
  5
CBF
 10
1.535075
 20
10.798228
 30
15.238707
 11
1.034565
 21
10.032375
 31
14.526872
 12
1.019679
 22
10.157419
 32
14.402806
 13
1.520189
 23
10.923272
 33
15.114641
  0
3DFACE
  8
11COM09-MAIN
  5
CC0
 10
1.019679
 20
10.157419
 30
14.402806
 11
1.520189
 21
10.923272
 31
15.114641
 12
2.646048
 22
11.198662
 32
5.685611
 13
1.997398
 23
10.396574
 33
6.214438
  0
3DFACE
  8
11COM09-MAIN
  5
CC1
 10
2.646048
 20
11.198662
 30
5.685611
 11
1.997398
 21
10.396574
 31
6.214438
 12
2.041912
 22
10.278777
 32
6.090372
 13
2.690562
 23
11.080865
 33
5.561545
  0
3DFACE
  8
11COM09-MAIN
  5
CC2
 10
2.041912
 20
10.278777
 30
6.090372
 11
2.690562
 21
11.080865
 31
5.561545
 12
5.660557
 22
-1.061175
 32
5.561545
 13
4.714908
 23
-0.649059
 33
6.090372
  0
3DFACE
  8
11COM09-MAIN
  5
CC3
 10
5.660557
 20
-1.061175
 30
5.561545
 11
4.714908
 21
-0.649059
 31
6.090372
 12
4.729794
 22
-0.774103
 32
6.214438
 13
5.675443
 23
-1.186219
 33
5.685611
  0
3DFACE
  8
11COM09-MAIN
  5
CC4
 10
4.729794
 20
-0.774103
 30
6.214438
 11
5.675443
 21
-1.186219
 31
5.685611
 12
4.549585
 22
-1.461608
 32
15.114641
 13
3.752075
 23
-1.013257
 33
14.402806
  0
3DFACE
  8
11COM09-MAIN
  5
CC5
 10
4.549585
 20
-1.461608
 30
15.114641
 11
3.752075
 21
-1.013257
 31
14.402806
 12
3.707561
 22
-0.89546
 32
14.526872
 13
4.505071
 23
-1.343812
 33
15.238707
  0
3DFACE
  8
11COM09-SCREEN
  5
CC6
 10
3.740501
 20
-1.019117
 30
14.505586
 11
1.008991
 21
10.147939
 31
14.505586
 12
2.014183
 22
10.393813
 32
6.087135
 13
4.745693
 23
-0.773243
 33
6.087135
  0
LINE
  8
11COM09-MAIN
  5
CC7
 10
2.615844
 20
12.220755
 30
3.948684
 11
2.526816
 21
12.456349
 31
4.196817
210
0.9641065590054773
220
0.2358246259437858
230
0.1220052813655689
  0
LINE
  8
11COM09-MAIN
  5
CC8
 10
-0.954463
 20
11.862183
 30
16.462204
 11
0.551475
 21
12.230542
 31
3.850026
210
0.9641065590054773
220
0.2358246259437858
230
0.1220052813655689
  0
LINE
  8
11COM09-MAIN
  5
CC9
 10
0.692654
 20
11.856941
 30
3.456542
 11
0.551475
 21
12.230542
 31
3.850026
210
0.9641065590054773
220
0.2358246259437858
230
0.1220052813655689
  0
LINE
  8
11COM09-MAIN
  5
CCA
 10
4.221853
 20
-2.571254
 30
3.456542
 11
0.717258
 21
11.756353
 31
3.456542
210
0.9641065590054773
220
0.2358246259437858
230
0.1220052813655689
  0
LINE
  8
11COM09-MAIN
  5
CCB
 10
4.246457
 20
-2.671842
 30
3.456542
 11
0.692654
 21
11.856941
 31
3.456542
210
0.9641065590054773
220
0.2358246259437858
230
0.1220052813655689
  0
LINE
  8
11COM09-MAIN
  5
CCC
 10
1.045423
 20
12.093993
 30
16.603435
 11
1.075195
 21
11.843906
 31
16.851567
210
0.9641065590054773
220
0.2358246259437858
230
0.1220052813655689
  0
LINE
  8
11COM09-MAIN
  5
CCD
 10
1.075195
 20
11.843906
 30
16.851567
 11
4.579789
 21
-2.483701
 31
16.851567
210
0.9641065590054773
220
0.2358246259437858
230
0.1220052813655689
  0
LINE
  8
11COM09-MAIN
  5
CCE
 10
4.579789
 20
-2.483701
 30
16.851567
 11
4.668817
 21
-2.719295
 31
16.603435
210
0.9641065590054773
220
0.2358246259437858
230
0.1220052813655689
  0
LINE
  8
11COM09-MAIN
  5
CCF
 10
6.15021
 20
-2.35694
 30
4.196817
 11
6.120438
 21
-2.106852
 31
3.948684
210
0.9641065590054773
220
0.2358246259437858
230
0.1220052813655689
  0
LINE
  8
11COM09-MAIN
  5
CD0
 10
-0.954463
 20
11.862183
 30
16.462204
 11
-0.90725
 21
11.465597
 31
16.855689
210
0.9641065590054773
220
0.2358246259437858
230
0.1220052813655689
  0
LINE
  8
11COM09-MAIN
  5
CD1
 10
2.646553
 20
-3.063186
 30
16.855689
 11
2.787732
 21
-3.436787
 31
16.462204
210
0.9641065590054773
220
0.2358246259437858
230
0.1220052813655689
  0
LINE
  8
11COM09-MAIN
  5
CD2
 10
4.293669
 20
-3.068428
 30
3.850026
 11
4.246457
 21
-2.671842
 31
3.456542
210
0.9641065590054773
220
0.2358246259437858
230
0.1220052813655689
  0
LINE
  8
11COM09-MAIN
  5
CD3
 10
2.787732
 20
-3.436787
 30
16.462204
 11
4.293669
 21
-3.068428
 31
3.850026
210
0.9641065590054773
220
0.2358246259437858
230
0.1220052813655689
  0
LINE
  8
11COM09-MAIN
  5
CD4
 10
-0.90725
 20
11.465597
 30
16.855689
 11
2.646553
 21
-3.063186
 31
16.855689
210
0.9641065590054773
220
0.2358246259437858
230
0.1220052813655689
  0
3DFACE
  8
11COM09-MAIN
  5
CD5
 10
4.579789
 20
-2.483701
 30
16.851567
 11
2.646553
 21
-3.063186
 31
16.855689
 12
-0.90725
 22
11.465597
 32
16.855689
 13
1.075195
 23
11.843906
 33
16.851567
  0
3DFACE
  8
11COM09-MAIN
  5
CD6
 10
-0.90725
 20
11.465597
 30
16.855689
 11
1.075195
 21
11.843906
 31
16.851567
 12
1.045423
 22
12.093993
 32
16.603435
 13
-0.954463
 23
11.862183
 33
16.462204
  0
3DFACE
  8
11COM09-MAIN
  5
CD7
 10
1.045423
 20
12.093993
 30
16.603435
 11
-0.954463
 21
11.862183
 31
16.462204
 12
0.551475
 22
12.230542
 32
3.850026
 13
2.526816
 23
12.456349
 33
4.196817
  0
3DFACE
  8
11COM09-MAIN
  5
CD8
 10
0.551475
 20
12.230542
 30
3.850026
 11
2.526816
 21
12.456349
 31
4.196817
 12
2.615844
 22
12.220755
 32
3.948684
 13
0.692654
 23
11.856941
 33
3.456542
  0
3DFACE
  8
11COM09-MAIN
  5
CD9
 10
2.615844
 20
12.220755
 30
3.948684
 11
0.692654
 21
11.856941
 31
3.456542
 12
4.246457
 22
-2.671842
 32
3.456542
 13
6.120438
 23
-2.106852
 33
3.948684
  0
3DFACE
  8
11COM09-MAIN
  5
CDA
 10
4.246457
 20
-2.671842
 30
3.456542
 11
6.120438
 21
-2.106852
 31
3.948684
 12
6.15021
 22
-2.35694
 32
4.196817
 13
4.293669
 23
-3.068428
 33
3.850026
  0
3DFACE
  8
11COM09-MAIN
  5
CDB
 10
6.15021
 20
-2.35694
 30
4.196817
 11
4.293669
 21
-3.068428
 31
3.850026
 12
2.787732
 22
-3.436787
 32
16.462204
 13
4.668817
 23
-2.719295
 33
16.603435
  0
3DFACE
  8
11COM09-MAIN
  5
CDC
 10
2.787732
 20
-3.436787
 30
16.462204
 11
4.668817
 21
-2.719295
 31
16.603435
 12
4.579789
 22
-2.483701
 32
16.851567
 13
2.646553
 23
-3.063186
 33
16.855689
  0
3DFACE
  8
11COM09-MAIN
  5
CDD
 10
5.037243
 20
-1.342325
 30
2.83415
 11
4.94836
 21
-1.364066
 31
3.578547
 12
1.918964
 22
11.020814
 32
3.578547
 13
2.007848
 23
11.042555
 33
2.83415
  0
INSERT
  8
11COM09-MAIN
  5
CDE
  2
BASE
 10
-7.84628
 20
-3.49233
 30
0.045117
 50
13.744512
210
-0.0075462447090215
220
-0.0018458440295448
230
0.9999698230699815
  0
LINE
  8
11COM09-MAIN
 39
2.5
  5
CDF
 10
-3.317517
 20
10.876036
 30
16.550676
 11
0.236286
 21
-3.652747
 31
16.550676
210
0.9641065590054773
220
0.2358246259437858
230
0.1220052813655689
  0
LINE
  8
11COM09-MAIN
 39
2.5
  5
CE0
 10
0.377465
 20
-4.026348
 30
16.157191
 11
1.883403
 21
-3.65799
 31
3.545013
210
0.9641065590054773
220
0.2358246259437858
230
0.1220052813655689
  0
LINE
  8
11COM09-MAIN
 39
2.5
  5
CE1
 10
1.883403
 20
-3.65799
 30
3.545013
 11
1.836191
 21
-3.261404
 31
3.151528
210
0.9641065590054773
220
0.2358246259437858
230
0.1220052813655689
  0
LINE
  8
11COM09-MAIN
 39
2.5
  5
CE2
 10
0.236286
 20
-3.652747
 30
16.550676
 11
0.377465
 21
-4.026348
 31
16.157191
210
0.9641065590054773
220
0.2358246259437858
230
0.1220052813655689
  0
LINE
  8
11COM09-MAIN
 39
2.5
  5
CE3
 10
-3.364729
 20
11.272622
 30
16.157191
 11
-3.317517
 21
10.876036
 31
16.550676
210
0.9641065590054773
220
0.2358246259437858
230
0.1220052813655689
  0
LINE
  8
11COM09-MAIN
  5
CE4
 10
1.836191
 20
-3.261404
 30
3.151528
 11
-1.717612
 21
11.267379
 31
3.151528
210
0.9641065590054773
220
0.2358246259437858
230
0.1220052813655689
  0
LINE
  8
11COM09-MAIN
 39
2.5
  5
CE5
 10
1.811586
 20
-3.160816
 30
3.151528
 11
-1.693008
 21
11.166791
 31
3.151528
210
0.9641065590054773
220
0.2358246259437858
230
0.1220052813655689
  0
LINE
  8
11COM09-MAIN
 39
2.5
  5
CE6
 10
-1.717612
 20
11.267379
 30
3.151528
 11
-1.858791
 21
11.64098
 31
3.545013
210
0.9641065590054773
220
0.2358246259437858
230
0.1220052813655689
  0
LINE
  8
11COM09-MAIN
 39
2.5
  5
CE7
 10
-3.364729
 20
11.272622
 30
16.157191
 11
-1.858791
 21
11.64098
 31
3.545013
210
0.9641065590054773
220
0.2358246259437858
230
0.1220052813655689
  0
LINE
  8
11COM09-MAIN
 39
-8.0
  5
CE8
 10
-6.311463
 20
9.522357
 30
14.138599
 11
-3.044468
 21
-3.833887
 31
14.138599
210
0.9641065590054773
220
0.2358246259437858
230
0.1220052813655689
  0
LINE
  8
11COM09-MAIN
 39
-10.0
  5
CE9
 10
-4.38325
 20
9.994006
 30
14.382609
 11
-3.020368
 21
10.327373
 31
2.96852
210
0.9641065590054773
220
0.2358246259437858
230
0.1220052813655689
  0
LINE
  8
11COM09-MAIN
 39
-10.0
  5
CEA
 10
-1.116255
 20
-3.362238
 30
14.382609
 11
0.246627
 21
-3.028871
 31
2.96852
210
0.9641065590054773
220
0.2358246259437858
230
0.1220052813655689
  0
LINE
  8
11COM09-MAIN
 39
-8.0
  5
CEB
 10
-1.919186
 20
-2.529157
 30
2.72451
 11
-4.710982
 21
8.88436
 31
2.72451
210
0.9641065590054773
220
0.2358246259437858
230
0.1220052813655689
  0
3DFACE
  8
11COM09-MAIN
  5
CEC
 10
-1.693008
 20
11.166791
 30
3.151528
 11
-4.710982
 21
8.88436
 31
2.72451
 12
-1.858791
 22
11.64098
 32
3.545013
 13
-1.693008
 23
11.166791
 33
3.151528
  0
3DFACE
  8
11COM09-MAIN
  5
CED
 10
-4.710982
 20
8.88436
 30
2.72451
 11
-1.858791
 21
11.64098
 31
3.545013
 12
-3.364729
 22
11.272622
 32
16.157191
 13
-6.073863
 23
8.550994
 33
14.138599
  0
3DFACE
  8
11COM09-MAIN
  5
CEE
 10
-3.364729
 20
11.272622
 30
16.157191
 11
-6.073863
 21
8.550994
 31
14.138599
 12
-3.317517
 22
10.876036
 32
16.550676
 13
-3.317517
 23
10.876036
 33
16.550676
  0
3DFACE
  8
11COM09-MAIN
  5
CEF
 10
-3.317517
 20
10.876036
 30
16.550676
 11
-6.073863
 21
8.550994
 31
14.138599
 12
-3.282068
 22
-2.862524
 32
14.138599
 13
0.236286
 23
-3.652747
 33
16.550676
  0
3DFACE
  8
11COM09-MAIN
  5
CF0
 10
-3.282068
 20
-2.862524
 30
14.138599
 11
0.236286
 21
-3.652747
 31
16.550676
 12
0.377465
 22
-4.026348
 32
16.157191
 13
-3.282068
 23
-2.862524
 33
14.138599
  0
3DFACE
  8
11COM09-MAIN
  5
CF1
 10
0.377465
 20
-4.026348
 30
16.157191
 11
-3.282068
 21
-2.862524
 31
14.138599
 12
-3.282068
 22
-2.862524
 32
14.138599
 13
-3.282068
 23
-2.862524
 33
14.138599
  0
3DFACE
  8
11COM09-MAIN
  5
CF2
 10
-1.919186
 20
-2.529157
 30
2.72451
 11
1.883403
 21
-3.65799
 31
3.545013
 12
0.377465
 22
-4.026348
 32
16.157191
 13
-3.282068
 23
-2.862524
 33
14.138599
  0
3DFACE
  8
11COM09-MAIN
  5
CF3
 10
-1.919186
 20
-2.529157
 30
2.72451
 11
1.883403
 21
-3.65799
 31
3.545013
 12
1.836191
 22
-3.261404
 32
3.151528
 13
-1.919186
 23
-2.529157
 33
2.72451
  0
3DFACE
  8
11COM09-MAIN
  5
CF4
 10
-1.919186
 20
-2.529157
 30
2.72451
 11
1.836191
 21
-3.261404
 31
3.151528
 12
-1.693008
 22
11.166791
 32
3.151528
 13
-4.710982
 23
8.88436
 33
2.72451
  0
3DFACE
  8
11COM09-MAIN
  5
CF5
 10
-14.024315
 20
7.63576
 30
13.162556
 11
-12.661434
 21
7.969126
 31
1.748468
 12
-9.394439
 22
-5.387117
 32
1.748468
 13
-10.75732
 23
-5.720484
 33
13.162556
  0
3DFACE
  8
11COM09-MAIN
  5
CF6
 10
-2.25
 20
18.562695
 30
11.432585
 11
-2.25
 21
22.562695
 31
11.432585
 12
-2.25
 22
22.562695
 32
10.432585
 13
-2.25
 23
18.562695
 33
10.432585
  0
3DFACE
  8
11COM09-MAIN
  5
CF7
 10
2.75
 20
20.125195
 30
10.557585
 11
2.75
 21
20.125195
 31
10.432585
 12
2.75
 22
21.500195
 32
10.432585
 13
2.75
 23
21.500195
 33
10.557585
 70
     5
  0
3DFACE
  8
11COM09-MAIN
  5
CF8
 10
2.75
 20
18.562695
 30
10.432585
 11
2.75
 21
18.750195
 31
10.932585
 12
2.75
 22
20.125195
 32
10.932585
 13
2.75
 23
20.125195
 33
10.432585
 70
     5
  0
3DFACE
  8
11COM09-MAIN
  5
CF9
 10
2.75
 20
18.750195
 30
11.182585
 11
2.75
 21
18.562695
 31
11.432585
 12
2.75
 22
18.562695
 32
10.432585
 13
2.75
 23
18.750195
 33
10.932585
 70
     5
  0
3DFACE
  8
11COM09-MAIN
  5
CFA
 10
2.75
 20
22.562695
 30
10.432585
 11
2.75
 21
22.375195
 31
10.932585
 12
2.75
 22
21.500195
 32
10.932585
 13
2.75
 23
21.500195
 33
10.432585
 70
     5
  0
3DFACE
  8
11COM09-MAIN
  5
CFB
 10
2.75
 20
22.375195
 30
11.182585
 11
2.75
 21
22.562695
 31
11.432585
 12
2.75
 22
22.562695
 32
10.432585
 13
2.75
 23
22.375195
 33
10.932585
 70
     5
  0
3DFACE
  8
11COM09-MAIN
  5
CFC
 10
2.75
 20
21.500195
 30
11.432585
 11
2.75
 21
21.500195
 31
11.182585
 12
2.75
 22
22.375195
 32
11.182585
 13
2.75
 23
22.562695
 33
11.432585
 70
     5
  0
3DFACE
  8
11COM09-MAIN
  5
CFD
 10
2.75
 20
20.125195
 30
11.432585
 11
2.75
 21
20.125195
 31
11.307585
 12
2.75
 22
21.500195
 32
11.307585
 13
2.75
 23
21.500195
 33
11.432585
 70
     5
  0
3DFACE
  8
11COM09-MAIN
  5
CFE
 10
2.75
 20
18.562695
 30
11.432585
 11
2.75
 21
18.750195
 31
11.182585
 12
2.75
 22
20.125195
 32
11.182585
 13
2.75
 23
20.125195
 33
11.432585
 70
     5
  0
3DFACE
  8
11COM09-MAIN
  5
CFF
 10
2.5
 20
18.875195
 30
10.932585
 11
2.5
 21
18.875195
 31
11.057585
 12
2.5
 22
22.250195
 32
11.057585
 13
2.5
 23
22.250195
 33
10.932585
  0
3DFACE
  8
11COM09-MAIN
  5
D00
 10
2.625
 20
21.500195
 30
11.182585
 11
2.625
 21
21.500195
 31
11.307585
 12
2.625
 22
20.125195
 32
11.307585
 13
2.625
 23
20.125195
 33
11.182585
  0
3DFACE
  8
11COM09-MAIN
  5
D01
 10
2.625
 20
22.375195
 30
11.182585
 11
2.625
 21
22.250195
 31
11.057585
 12
2.625
 22
22.250195
 32
10.932585
 13
2.625
 23
22.375195
 33
10.932585
  0
3DFACE
  8
11COM09-MAIN
  5
D02
 10
2.625
 20
18.875195
 30
11.057585
 11
2.625
 21
18.750195
 31
11.182585
 12
2.625
 22
22.375195
 32
11.182585
 13
2.625
 23
22.250195
 33
11.057585
  0
3DFACE
  8
11COM09-MAIN
  5
D03
 10
2.625
 20
20.125195
 30
10.932585
 11
2.625
 21
20.125195
 31
10.807585
 12
2.625
 22
21.500195
 32
10.807585
 13
2.625
 23
21.500195
 33
10.932585
  0
3DFACE
  8
11COM09-MAIN
  5
D04
 10
2.625
 20
18.875195
 30
10.932585
 11
2.625
 21
18.750195
 31
10.932585
 12
2.625
 22
18.750195
 32
11.182585
 13
2.625
 23
18.875195
 33
11.057585
  0
LINE
  8
11COM09-MAIN
 39
-0.125
  5
D05
 10
2.625
 20
20.125195
 30
10.932585
 11
2.625
 21
21.500195
 31
10.932585
210
1.0
220
0.0
230
0.0
  0
LINE
  8
11COM09-MAIN
 39
-0.25
  5
D06
 10
2.75
 20
21.500195
 30
10.932585
 11
2.75
 21
22.375195
 31
10.932585
210
1.0
220
0.0
230
0.0
  0
3DFACE
  8
11COM09-MAIN
  5
D07
 10
2.75
 20
20.125195
 30
10.557585
 11
2.625
 21
20.125195
 31
10.807585
 12
2.625
 22
21.500195
 32
10.807585
 13
2.75
 23
21.500195
 33
10.557585
  0
INSERT
  8
11COM09-MAIN
  5
D08
  2
5CUBE
 10
21.620483
 20
10.557357
 30
2.75
 41
0.629903
 42
0.248427
 43
-0.125
210
1.0
220
0.0
230
0.0
  0
LINE
  8
11COM09-MAIN
  5
D09
 10
2.625
 20
20.125195
 30
10.807585
 11
2.625
 21
21.500195
 31
10.807585
210
1.0
220
0.0
230
0.0
  0
LINE
  8
11COM09-MAIN
 39
-0.125
  5
D0A
 10
2.75
 20
21.500195
 30
10.932585
 11
2.75
 21
21.500195
 31
10.557585
210
1.0
220
0.0
230
0.0
  0
LINE
  8
11COM09-MAIN
 39
-0.125
  5
D0B
 10
2.75
 20
20.125195
 30
10.932585
 11
2.75
 21
20.125195
 31
10.557585
210
1.0
220
0.0
230
0.0
  0
LINE
  8
11COM09-MAIN
 39
-0.125
  5
D0C
 10
2.75
 20
21.500195
 30
11.182585
 11
2.75
 21
22.375195
 31
11.182585
210
1.0
220
0.0
230
0.0
  0
LINE
  8
11COM09-MAIN
  5
D0D
 10
2.75
 20
20.125195
 30
10.557585
 11
2.75
 21
21.500195
 31
10.557585
210
1.0
220
0.0
230
0.0
  0
LINE
  8
11COM09-MAIN
 39
-0.125
  5
D0E
 10
2.75
 20
20.125195
 30
11.307585
 11
2.75
 21
21.500195
 31
11.307585
210
1.0
220
0.0
230
0.0
  0
LINE
  8
11COM09-MAIN
 39
-0.125
  5
D0F
 10
2.75
 20
21.500195
 30
11.307585
 11
2.75
 21
21.500195
 31
11.182585
210
1.0
220
0.0
230
0.0
  0
LINE
  8
11COM09-MAIN
 39
-0.125
  5
D10
 10
2.75
 20
20.125195
 30
11.307585
 11
2.75
 21
20.125195
 31
11.182585
210
1.0
220
0.0
230
0.0
  0
LINE
  8
11COM09-MAIN
 39
-0.125
  5
D11
 10
2.625
 20
22.250195
 30
11.057585
 11
2.625
 21
22.250195
 31
10.932585
210
1.0
220
0.0
230
0.0
  0
LINE
  8
11COM09-MAIN
 39
-0.125
  5
D12
 10
2.625
 20
18.875195
 30
11.057585
 11
2.625
 21
18.875195
 31
10.932585
210
1.0
220
0.0
230
0.0
  0
LINE
  8
11COM09-MAIN
 39
-0.25
  5
D13
 10
2.75
 20
18.750195
 30
10.932585
 11
2.75
 21
20.125195
 31
10.932585
210
1.0
220
0.0
230
0.0
  0
LINE
  8
11COM09-MAIN
 39
-0.125
  5
D14
 10
2.75
 20
18.750195
 30
11.182585
 11
2.75
 21
20.125195
 31
11.182585
210
1.0
220
0.0
230
0.0
  0
LINE
  8
11COM09-MAIN
 39
-0.125
  5
D15
 10
2.625
 20
18.875195
 30
11.057585
 11
2.625
 21
22.250195
 31
11.057585
210
1.0
220
0.0
230
0.0
  0
LINE
  8
11COM09-MAIN
 39
-0.125
  5
D16
 10
2.75
 20
22.375195
 30
11.182585
 11
2.75
 21
22.375195
 31
10.932585
210
1.0
220
0.0
230
0.0
  0
LINE
  8
11COM09-MAIN
 39
-0.125
  5
D17
 10
2.75
 20
18.750195
 30
11.182585
 11
2.75
 21
18.750195
 31
10.932585
210
1.0
220
0.0
230
0.0
  0
LINE
  8
11COM09-MAIN
 39
-5.0
  5
D18
 10
2.75
 20
22.562695
 30
11.432585
 11
2.75
 21
22.562695
 31
10.432585
210
1.0
220
0.0
230
0.0
  0
LINE
  8
11COM09-MAIN
 39
-5.0
  5
D19
 10
2.75
 20
18.562695
 30
11.432585
 11
2.75
 21
18.562695
 31
10.432585
210
1.0
220
0.0
230
0.0
  0
LINE
  8
11COM09-MAIN
 39
-5.0
  5
D1A
 10
2.75
 20
18.562695
 30
10.432585
 11
2.75
 21
22.562695
 31
10.432585
210
1.0
220
0.0
230
0.0
  0
LINE
  8
11COM09-MAIN
 39
-5.0
  5
D1B
 10
2.75
 20
18.562695
 30
11.432585
 11
2.75
 21
22.562695
 31
11.432585
210
1.0
220
0.0
230
0.0
  0
3DFACE
  8
11COM09-LOCK
  5
D1C
 10
2.8125
 20
23.62627
 30
10.533418
 11
2.875
 21
23.66381
 31
10.477236
 12
2.875
 22
23.57899
 32
10.392416
 13
2.8125
 23
23.522808
 33
10.429956
  0
3DFACE
  8
11COM09-LOCK
  5
D1D
 10
2.875
 20
23.774632
 30
10.52314
 11
2.8125
 21
23.76145
 31
10.589411
 12
2.8125
 22
23.62627
 32
10.533418
 13
2.875
 23
23.66381
 33
10.477236
  0
3DFACE
  8
11COM09-LOCK
  5
D1E
 10
2.875
 20
23.57899
 30
10.050818
 11
2.875
 21
23.57899
 31
10.392416
 12
2.875
 22
23.533086
 32
10.281594
 13
2.875
 23
23.533086
 33
10.16164
 70
     1
  0
3DFACE
  8
11COM09-LOCK
  5
D1F
 10
2.875
 20
23.66381
 30
10.477236
 11
2.875
 21
23.66381
 31
9.965998
 12
2.875
 22
23.57899
 32
10.050818
 13
2.875
 23
23.57899
 33
10.392416
 70
     5
  0
3DFACE
  8
11COM09-LOCK
  5
D20
 10
2.875
 20
23.774632
 30
9.920094
 11
2.875
 21
23.774632
 31
10.52314
 12
2.875
 22
23.66381
 32
10.477236
 13
2.875
 23
23.66381
 33
9.965998
 70
     5
  0
3DFACE
  8
11COM09-LOCK
  5
D21
 10
2.875
 20
23.795925
 30
10.434215
 11
2.875
 21
23.795925
 31
10.028246
 12
2.875
 22
23.774632
 32
9.920094
 13
2.875
 23
23.774632
 33
10.52314
 70
    14
  0
3DFACE
  8
11COM09-LOCK
  5
D22
 10
2.875
 20
23.894586
 30
9.920094
 11
2.875
 21
23.894586
 31
10.52314
 12
2.875
 22
23.862197
 32
10.434215
 13
2.875
 23
23.862197
 33
10.028246
 70
    11
  0
3DFACE
  8
11COM09-LOCK
  5
D23
 10
2.875
 20
24.005408
 30
10.477236
 11
2.875
 21
24.005408
 31
9.965998
 12
2.875
 22
23.894586
 32
9.920094
 13
2.875
 23
23.894586
 33
10.52314
 70
     5
  0
3DFACE
  8
11COM09-LOCK
  5
D24
 10
2.875
 20
24.090228
 30
10.050818
 11
2.875
 21
24.090228
 31
10.392416
 12
2.875
 22
24.005408
 32
10.477236
 13
2.875
 23
24.005408
 33
9.965998
 70
     5
  0
3DFACE
  8
11COM09-LOCK
  5
D25
 10
2.875
 20
24.136132
 30
10.281594
 11
2.875
 21
24.136132
 31
10.16164
 12
2.875
 22
24.090228
 32
10.050818
 13
2.875
 23
24.090228
 33
10.392416
 70
     4
  0
3DFACE
  8
11COM09-LOCK
  5
D26
 10
2.875
 20
23.795925
 30
10.434215
 11
2.875
 21
23.774632
 31
10.52314
 12
2.875
 22
23.894586
 32
10.52314
 13
2.875
 23
23.862197
 33
10.434215
 70
     5
  0
3DFACE
  8
11COM09-LOCK
  5
D27
 10
2.875
 20
23.774632
 30
9.920094
 11
2.875
 21
23.795925
 31
10.028246
 12
2.875
 22
23.862197
 32
10.028246
 13
2.875
 23
23.894586
 33
9.920094
 70
     5
  0
3DFACE
  8
11COM09-LOCK
  5
D28
 10
2.8125
 20
23.907768
 30
9.853822
 11
2.875
 21
23.894586
 31
9.920094
 12
2.875
 22
24.005408
 32
9.965998
 13
2.8125
 23
24.042948
 33
9.909816
  0
3DFACE
  8
11COM09-LOCK
  5
D29
 10
2.875
 20
23.774632
 30
9.920094
 11
2.8125
 21
23.76145
 31
9.853822
 12
2.8125
 22
23.907768
 32
9.853822
 13
2.875
 23
23.894586
 33
9.920094
  0
3DFACE
  8
11COM09-LOCK
  5
D2A
 10
2.8125
 20
23.62627
 30
9.909816
 11
2.875
 21
23.66381
 31
9.965998
 12
2.875
 22
23.774632
 32
9.920094
 13
2.8125
 23
23.76145
 33
9.853822
  0
3DFACE
  8
11COM09-LOCK
  5
D2B
 10
2.875
 20
23.57899
 30
10.050818
 11
2.8125
 21
23.522808
 31
10.013278
 12
2.8125
 22
23.62627
 32
9.909816
 13
2.875
 23
23.66381
 33
9.965998
  0
3DFACE
  8
11COM09-LOCK
  5
D2C
 10
2.8125
 20
23.466815
 30
10.148458
 11
2.875
 21
23.533086
 31
10.16164
 12
2.875
 22
23.57899
 32
10.050818
 13
2.8125
 23
23.522808
 33
10.013278
  0
3DFACE
  8
11COM09-LOCK
  5
D2D
 10
2.875
 20
23.533086
 30
10.281594
 11
2.8125
 21
23.466815
 31
10.294776
 12
2.8125
 22
23.466815
 32
10.148458
 13
2.875
 23
23.533086
 33
10.16164
  0
3DFACE
  8
11COM09-LOCK
  5
D2E
 10
2.8125
 20
23.522808
 30
10.429956
 11
2.875
 21
23.57899
 31
10.392416
 12
2.875
 22
23.533086
 32
10.281594
 13
2.8125
 23
23.466815
 33
10.294776
  0
3DFACE
  8
11COM09-LOCK
  5
D2F
 10
2.875
 20
23.894586
 30
10.52314
 11
2.8125
 21
23.907768
 31
10.589411
 12
2.8125
 22
23.76145
 32
10.589411
 13
2.875
 23
23.774632
 33
10.52314
  0
3DFACE
  8
11COM09-LOCK
  5
D30
 10
2.8125
 20
24.042948
 30
10.533418
 11
2.875
 21
24.005408
 31
10.477236
 12
2.875
 22
23.894586
 32
10.52314
 13
2.8125
 23
23.907768
 33
10.589411
  0
3DFACE
  8
11COM09-LOCK
  5
D31
 10
2.875
 20
24.090228
 30
10.392416
 11
2.8125
 21
24.14641
 31
10.429956
 12
2.8125
 22
24.042948
 32
10.533418
 13
2.875
 23
24.005408
 33
10.477236
  0
3DFACE
  8
11COM09-LOCK
  5
D32
 10
2.8125
 20
24.202403
 30
10.294776
 11
2.875
 21
24.136132
 31
10.281594
 12
2.875
 22
24.090228
 32
10.392416
 13
2.8125
 23
24.14641
 33
10.429956
  0
3DFACE
  8
11COM09-LOCK
  5
D33
 10
2.875
 20
24.136132
 30
10.16164
 11
2.8125
 21
24.202403
 31
10.148458
 12
2.8125
 22
24.202403
 32
10.294776
 13
2.875
 23
24.136132
 33
10.281594
  0
3DFACE
  8
11COM09-LOCK
  5
D34
 10
2.8125
 20
24.14641
 30
10.013278
 11
2.875
 21
24.090228
 31
10.050818
 12
2.875
 22
24.136132
 32
10.16164
 13
2.8125
 23
24.202403
 33
10.148458
  0
3DFACE
  8
11COM09-LOCK
  5
D35
 10
2.8125
 20
24.042948
 30
9.909816
 11
2.875
 21
24.005408
 31
9.965998
 12
2.875
 22
24.090228
 32
10.050818
 13
2.8125
 23
24.14641
 33
10.013278
  0
LINE
  8
11COM09-LOCK
 39
0.0625
  5
D36
 10
2.75
 20
23.907768
 30
10.589411
 11
2.75
 21
23.76145
 31
10.589411
210
1.0
220
0.0
230
0.0
  0
LINE
  8
11COM09-LOCK
 39
0.0625
  5
D37
 10
2.75
 20
24.042948
 30
10.533418
 11
2.75
 21
23.907768
 31
10.589411
210
1.0
220
0.0
230
0.0
  0
LINE
  8
11COM09-LOCK
 39
0.0625
  5
D38
 10
2.75
 20
24.14641
 30
10.429956
 11
2.75
 21
24.042948
 31
10.533418
210
1.0
220
0.0
230
0.0
  0
LINE
  8
11COM09-LOCK
 39
0.0625
  5
D39
 10
2.75
 20
24.202403
 30
10.294776
 11
2.75
 21
24.14641
 31
10.429956
210
1.0
220
0.0
230
0.0
  0
LINE
  8
11COM09-LOCK
 39
0.0625
  5
D3A
 10
2.75
 20
24.202403
 30
10.148458
 11
2.75
 21
24.202403
 31
10.294776
210
1.0
220
0.0
230
0.0
  0
LINE
  8
11COM09-LOCK
 39
0.0625
  5
D3B
 10
2.75
 20
24.14641
 30
10.013278
 11
2.75
 21
24.202403
 31
10.148458
210
1.0
220
0.0
230
0.0
  0
LINE
  8
11COM09-LOCK
 39
0.0625
  5
D3C
 10
2.75
 20
24.042948
 30
9.909816
 11
2.75
 21
24.14641
 31
10.013278
210
1.0
220
0.0
230
0.0
  0
LINE
  8
11COM09-LOCK
 39
0.0625
  5
D3D
 10
2.75
 20
23.907768
 30
9.853822
 11
2.75
 21
24.042948
 31
9.909816
210
1.0
220
0.0
230
0.0
  0
LINE
  8
11COM09-LOCK
 39
0.0625
  5
D3E
 10
2.75
 20
23.76145
 30
9.853822
 11
2.75
 21
23.907768
 31
9.853822
210
1.0
220
0.0
230
0.0
  0
LINE
  8
11COM09-LOCK
 39
0.0625
  5
D3F
 10
2.75
 20
23.62627
 30
9.909816
 11
2.75
 21
23.76145
 31
9.853822
210
1.0
220
0.0
230
0.0
  0
LINE
  8
11COM09-LOCK
 39
0.0625
  5
D40
 10
2.75
 20
23.522808
 30
10.013278
 11
2.75
 21
23.62627
 31
9.909816
210
1.0
220
0.0
230
0.0
  0
LINE
  8
11COM09-LOCK
 39
0.0625
  5
D41
 10
2.75
 20
23.466815
 30
10.148458
 11
2.75
 21
23.522808
 31
10.013278
210
1.0
220
0.0
230
0.0
  0
LINE
  8
11COM09-LOCK
 39
0.0625
  5
D42
 10
2.75
 20
23.466815
 30
10.294776
 11
2.75
 21
23.466815
 31
10.148458
210
1.0
220
0.0
230
0.0
  0
LINE
  8
11COM09-LOCK
 39
0.0625
  5
D43
 10
2.75
 20
23.522808
 30
10.429956
 11
2.75
 21
23.466815
 31
10.294776
210
1.0
220
0.0
230
0.0
  0
LINE
  8
11COM09-LOCK
 39
0.0625
  5
D44
 10
2.75
 20
23.62627
 30
10.533418
 11
2.75
 21
23.522808
 31
10.429956
210
1.0
220
0.0
230
0.0
  0
LINE
  8
11COM09-LOCK
 39
0.0625
  5
D45
 10
2.75
 20
23.76145
 30
10.589411
 11
2.75
 21
23.62627
 31
10.533418
210
1.0
220
0.0
230
0.0
  0
LINE
  8
11COM09-LOCK
  5
D46
 10
2.875
 20
23.894586
 30
10.52314
 11
2.875
 21
23.774632
 31
10.52314
210
1.0
220
0.0
230
0.0
  0
LINE
  8
11COM09-LOCK
  5
D47
 10
2.875
 20
24.005408
 30
10.477236
 11
2.875
 21
23.894586
 31
10.52314
210
1.0
220
0.0
230
0.0
  0
LINE
  8
11COM09-LOCK
  5
D48
 10
2.875
 20
24.090228
 30
10.392416
 11
2.875
 21
24.005408
 31
10.477236
210
1.0
220
0.0
230
0.0
  0
LINE
  8
11COM09-LOCK
  5
D49
 10
2.875
 20
24.136132
 30
10.281594
 11
2.875
 21
24.090228
 31
10.392416
210
1.0
220
0.0
230
0.0
  0
LINE
  8
11COM09-LOCK
  5
D4A
 10
2.875
 20
24.136132
 30
10.16164
 11
2.875
 21
24.136132
 31
10.281594
210
1.0
220
0.0
230
0.0
  0
LINE
  8
11COM09-LOCK
  5
D4B
 10
2.875
 20
24.090228
 30
10.050818
 11
2.875
 21
24.136132
 31
10.16164
210
1.0
220
0.0
230
0.0
  0
LINE
  8
11COM09-LOCK
  5
D4C
 10
2.875
 20
24.005408
 30
9.965998
 11
2.875
 21
24.090228
 31
10.050818
210
1.0
220
0.0
230
0.0
  0
LINE
  8
11COM09-LOCK
  5
D4D
 10
2.875
 20
23.894586
 30
9.920094
 11
2.875
 21
24.005408
 31
9.965998
210
1.0
220
0.0
230
0.0
  0
LINE
  8
11COM09-LOCK
  5
D4E
 10
2.875
 20
23.774632
 30
9.920094
 11
2.875
 21
23.894586
 31
9.920094
210
1.0
220
0.0
230
0.0
  0
LINE
  8
11COM09-LOCK
  5
D4F
 10
2.875
 20
23.66381
 30
9.965998
 11
2.875
 21
23.774632
 31
9.920094
210
1.0
220
0.0
230
0.0
  0
LINE
  8
11COM09-LOCK
  5
D50
 10
2.875
 20
23.57899
 30
10.050818
 11
2.875
 21
23.66381
 31
9.965998
210
1.0
220
0.0
230
0.0
  0
LINE
  8
11COM09-LOCK
  5
D51
 10
2.875
 20
23.533086
 30
10.16164
 11
2.875
 21
23.57899
 31
10.050818
210
1.0
220
0.0
230
0.0
  0
LINE
  8
11COM09-LOCK
  5
D52
 10
2.875
 20
23.533086
 30
10.281594
 11
2.875
 21
23.533086
 31
10.16164
210
1.0
220
0.0
230
0.0
  0
LINE
  8
11COM09-LOCK
  5
D53
 10
2.875
 20
23.57899
 30
10.392416
 11
2.875
 21
23.533086
 31
10.281594
210
1.0
220
0.0
230
0.0
  0
LINE
  8
11COM09-LOCK
  5
D54
 10
2.875
 20
23.66381
 30
10.477236
 11
2.875
 21
23.57899
 31
10.392416
210
1.0
220
0.0
230
0.0
  0
LINE
  8
11COM09-LOCK
  5
D55
 10
2.875
 20
23.774632
 30
10.52314
 11
2.875
 21
23.66381
 31
10.477236
210
1.0
220
0.0
230
0.0
  0
LINE
  8
11COM09-LOCK
  5
D56
 10
2.875
 20
23.862197
 30
10.434215
 11
2.875
 21
23.862197
 31
10.028246
210
1.0
220
0.0
230
0.0
  0
LINE
  8
11COM09-LOCK
  5
D57
 10
2.875
 20
23.795925
 30
10.434215
 11
2.875
 21
23.795925
 31
10.028246
210
1.0
220
0.0
230
0.0
  0
3DFACE
  8
11COM09-MAIN
  5
D58
 10
2.75
 20
18.5625
 30
14.875
 11
2.75
 21
18.5625
 31
16.5625
 12
2.75
 22
24.4375
 32
16.5625
 13
2.75
 23
24.4375
 33
14.875
  0
3DFACE
  8
11COM09-MAIN
  5
D59
 10
-2.25
 20
18.5625
 30
10.375809
 11
-2.25
 21
22.5625
 31
10.375809
 12
-2.25
 22
22.5625
 32
9.375809
 13
-2.25
 23
18.5625
 33
9.375809
  0
3DFACE
  8
11COM09-MAIN
  5
D5A
 10
2.75
 20
20.125
 30
9.500809
 11
2.75
 21
20.125
 31
9.375809
 12
2.75
 22
21.5
 32
9.375809
 13
2.75
 23
21.5
 33
9.500809
 70
     5
  0
3DFACE
  8
11COM09-MAIN
  5
D5B
 10
2.75
 20
18.5625
 30
9.375809
 11
2.75
 21
18.75
 31
9.875809
 12
2.75
 22
20.125
 32
9.875809
 13
2.75
 23
20.125
 33
9.375809
 70
     5
  0
3DFACE
  8
11COM09-MAIN
  5
D5C
 10
2.75
 20
18.75
 30
10.125809
 11
2.75
 21
18.5625
 31
10.375809
 12
2.75
 22
18.5625
 32
9.375809
 13
2.75
 23
18.75
 33
9.875809
 70
     5
  0
3DFACE
  8
11COM09-MAIN
  5
D5D
 10
2.75
 20
22.5625
 30
9.375809
 11
2.75
 21
22.375
 31
9.875809
 12
2.75
 22
21.5
 32
9.875809
 13
2.75
 23
21.5
 33
9.375809
 70
     5
  0
3DFACE
  8
11COM09-MAIN
  5
D5E
 10
2.75
 20
22.375
 30
10.125809
 11
2.75
 21
22.5625
 31
10.375809
 12
2.75
 22
22.5625
 32
9.375809
 13
2.75
 23
22.375
 33
9.875809
 70
     5
  0
3DFACE
  8
11COM09-MAIN
  5
D5F
 10
2.75
 20
21.5
 30
10.375809
 11
2.75
 21
21.5
 31
10.125809
 12
2.75
 22
22.375
 32
10.125809
 13
2.75
 23
22.5625
 33
10.375809
 70
     5
  0
3DFACE
  8
11COM09-MAIN
  5
D60
 10
2.75
 20
20.125
 30
10.375809
 11
2.75
 21
20.125
 31
10.250809
 12
2.75
 22
21.5
 32
10.250809
 13
2.75
 23
21.5
 33
10.375809
 70
     5
  0
3DFACE
  8
11COM09-MAIN
  5
D61
 10
2.75
 20
18.5625
 30
10.375809
 11
2.75
 21
18.75
 31
10.125809
 12
2.75
 22
20.125
 32
10.125809
 13
2.75
 23
20.125
 33
10.375809
 70
     5
  0
3DFACE
  8
11COM09-MAIN
  5
D62
 10
2.5
 20
18.875
 30
9.875809
 11
2.5
 21
18.875
 31
10.000809
 12
2.5
 22
22.25
 32
10.000809
 13
2.5
 23
22.25
 33
9.875809
  0
3DFACE
  8
11COM09-MAIN
  5
D63
 10
2.625
 20
21.5
 30
10.125809
 11
2.625
 21
21.5
 31
10.250809
 12
2.625
 22
20.125
 32
10.250809
 13
2.625
 23
20.125
 33
10.125809
  0
3DFACE
  8
11COM09-MAIN
  5
D64
 10
2.625
 20
22.375
 30
10.125809
 11
2.625
 21
22.25
 31
10.000809
 12
2.625
 22
22.25
 32
9.875809
 13
2.625
 23
22.375
 33
9.875809
  0
3DFACE
  8
11COM09-MAIN
  5
D65
 10
2.625
 20
18.875
 30
10.000809
 11
2.625
 21
18.75
 31
10.125809
 12
2.625
 22
22.375
 32
10.125809
 13
2.625
 23
22.25
 33
10.000809
  0
3DFACE
  8
11COM09-MAIN
  5
D66
 10
2.625
 20
20.125
 30
9.875809
 11
2.625
 21
20.125
 31
9.750809
 12
2.625
 22
21.5
 32
9.750809
 13
2.625
 23
21.5
 33
9.875809
  0
3DFACE
  8
11COM09-MAIN
  5
D67
 10
2.625
 20
18.875
 30
9.875809
 11
2.625
 21
18.75
 31
9.875809
 12
2.625
 22
18.75
 32
10.125809
 13
2.625
 23
18.875
 33
10.000809
  0
LINE
  8
11COM09-MAIN
 39
-0.125
  5
D68
 10
2.625
 20
20.125
 30
9.875809
 11
2.625
 21
21.5
 31
9.875809
210
1.0
220
0.0
230
0.0
  0
LINE
  8
11COM09-MAIN
 39
-0.25
  5
D69
 10
2.75
 20
21.5
 30
9.875809
 11
2.75
 21
22.375
 31
9.875809
210
1.0
220
0.0
230
0.0
  0
3DFACE
  8
11COM09-MAIN
  5
D6A
 10
2.75
 20
20.125
 30
9.500809
 11
2.625
 21
20.125
 31
9.750809
 12
2.625
 22
21.5
 32
9.750809
 13
2.75
 23
21.5
 33
9.500809
  0
INSERT
  8
11COM09-MAIN
  5
D6B
  2
5CUBE
 10
21.620287
 20
9.500581
 30
2.75
 41
0.629903
 42
0.248427
 43
-0.125
210
1.0
220
0.0
230
0.0
  0
LINE
  8
11COM09-MAIN
  5
D6C
 10
2.625
 20
20.125
 30
9.750809
 11
2.625
 21
21.5
 31
9.750809
210
1.0
220
0.0
230
0.0
  0
LINE
  8
11COM09-MAIN
 39
-0.125
  5
D6D
 10
2.75
 20
21.5
 30
9.875809
 11
2.75
 21
21.5
 31
9.500809
210
1.0
220
0.0
230
0.0
  0
LINE
  8
11COM09-MAIN
 39
-0.125
  5
D6E
 10
2.75
 20
20.125
 30
9.875809
 11
2.75
 21
20.125
 31
9.500809
210
1.0
220
0.0
230
0.0
  0
LINE
  8
11COM09-MAIN
 39
-0.125
  5
D6F
 10
2.75
 20
21.5
 30
10.125809
 11
2.75
 21
22.375
 31
10.125809
210
1.0
220
0.0
230
0.0
  0
LINE
  8
11COM09-MAIN
  5
D70
 10
2.75
 20
20.125
 30
9.500809
 11
2.75
 21
21.5
 31
9.500809
210
1.0
220
0.0
230
0.0
  0
LINE
  8
11COM09-MAIN
 39
-0.125
  5
D71
 10
2.75
 20
20.125
 30
10.250809
 11
2.75
 21
21.5
 31
10.250809
210
1.0
220
0.0
230
0.0
  0
LINE
  8
11COM09-MAIN
 39
-0.125
  5
D72
 10
2.75
 20
21.5
 30
10.250809
 11
2.75
 21
21.5
 31
10.125809
210
1.0
220
0.0
230
0.0
  0
LINE
  8
11COM09-MAIN
 39
-0.125
  5
D73
 10
2.75
 20
20.125
 30
10.250809
 11
2.75
 21
20.125
 31
10.125809
210
1.0
220
0.0
230
0.0
  0
LINE
  8
11COM09-MAIN
 39
-0.125
  5
D74
 10
2.625
 20
22.25
 30
10.000809
 11
2.625
 21
22.25
 31
9.875809
210
1.0
220
0.0
230
0.0
  0
LINE
  8
11COM09-MAIN
 39
-0.125
  5
D75
 10
2.625
 20
18.875
 30
10.000809
 11
2.625
 21
18.875
 31
9.875809
210
1.0
220
0.0
230
0.0
  0
LINE
  8
11COM09-MAIN
 39
-0.25
  5
D76
 10
2.75
 20
18.75
 30
9.875809
 11
2.75
 21
20.125
 31
9.875809
210
1.0
220
0.0
230
0.0
  0
LINE
  8
11COM09-MAIN
 39
-0.125
  5
D77
 10
2.75
 20
18.75
 30
10.125809
 11
2.75
 21
20.125
 31
10.125809
210
1.0
220
0.0
230
0.0
  0
LINE
  8
11COM09-MAIN
 39
-0.125
  5
D78
 10
2.625
 20
18.875
 30
10.000809
 11
2.625
 21
22.25
 31
10.000809
210
1.0
220
0.0
230
0.0
  0
LINE
  8
11COM09-MAIN
 39
-0.125
  5
D79
 10
2.75
 20
22.375
 30
10.125809
 11
2.75
 21
22.375
 31
9.875809
210
1.0
220
0.0
230
0.0
  0
LINE
  8
11COM09-MAIN
 39
-0.125
  5
D7A
 10
2.75
 20
18.75
 30
10.125809
 11
2.75
 21
18.75
 31
9.875809
210
1.0
220
0.0
230
0.0
  0
LINE
  8
11COM09-MAIN
 39
-5.0
  5
D7B
 10
2.75
 20
22.5625
 30
10.375809
 11
2.75
 21
22.5625
 31
9.375809
210
1.0
220
0.0
230
0.0
  0
LINE
  8
11COM09-MAIN
 39
-5.0
  5
D7C
 10
2.75
 20
18.5625
 30
10.375809
 11
2.75
 21
18.5625
 31
9.375809
210
1.0
220
0.0
230
0.0
  0
LINE
  8
11COM09-MAIN
 39
-5.0
  5
D7D
 10
2.75
 20
18.5625
 30
9.375809
 11
2.75
 21
22.5625
 31
9.375809
210
1.0
220
0.0
230
0.0
  0
LINE
  8
11COM09-MAIN
 39
-5.0
  5
D7E
 10
2.75
 20
18.5625
 30
10.375809
 11
2.75
 21
22.5625
 31
10.375809
210
1.0
220
0.0
230
0.0
  0
3DFACE
  8
11COM09-MAIN
  5
D7F
 10
2.75
 20
18.5625
 30
13.125
 11
2.75
 21
18.5625
 31
14.8125
 12
2.75
 22
24.4375
 32
14.8125
 13
2.75
 23
24.4375
 33
13.125
  0
3DFACE
  8
11COM09-MAIN
  5
D80
 10
-4.25
 20
18.5625
 30
18.3125
 11
-4.25
 21
24.4375
 31
18.3125
 12
-4.25
 22
24.4375
 32
16.625
 13
-4.25
 23
18.5625
 33
16.625
  0
3DFACE
  8
11COM09-MAIN
  5
D81
 10
2.8125
 20
18.93599
 30
18.134062
 11
2.8125
 21
18.93599
 31
17.930154
 12
2.8125
 22
19.369627
 32
17.930154
 13
2.8125
 23
19.369627
 33
18.134062
  0
3DFACE
  8
11COM09-MAIN
  5
D82
 10
2.25
 20
22.435999
 30
17.5
 11
2.375
 21
22.435999
 31
17.5
 12
2.75
 22
22.4375
 32
16.875
 13
2.5
 23
22.4375
 33
16.875
  0
3DFACE
  8
11COM09-MAIN
  5
D83
 10
2.375
 20
23.952999
 30
17.5
 11
2.5
 21
23.952999
 31
17.5
 12
2.75
 22
23.9545
 32
17.375
 13
2.75
 23
23.9545
 33
16.875
  0
LINE
  8
11COM09-MAIN
 39
-0.25
  5
D84
 10
2.5
 20
23.954111
 30
17.5
 11
2.5
 21
24.1875
 31
17.5
210
1.0
220
0.0
230
0.0
  0
3DFACE
  8
11COM09-MAIN
  5
D85
 10
2.25
 20
22.4375
 30
17.6875
 11
2.25
 21
22.436542
 31
17.625
 12
2.5
 22
22.436542
 32
17.625
 13
2.75
 23
22.4375
 33
17.6875
  0
LINE
  8
11COM09-MAIN
 39
-0.125
  5
D86
 10
2.375
 20
22.435999
 30
17.5
 11
2.375
 21
23.952999
 31
17.5
210
1.0
220
0.0
230
0.0
  0
LINE
  8
11COM09-MAIN
 39
-0.25
  5
D87
 10
2.5
 20
22.436542
 30
17.625
 11
2.5
 21
24.1875
 31
17.625
210
1.0
220
0.0
230
0.0
  0
3DFACE
  8
11COM09-MAIN
  5
D88
 10
2.25
 20
20.8125
 30
17.497338
 11
2.5
 21
20.812752
 31
17.5
 12
2.75
 22
20.8125
 32
17.375
 13
2.25
 23
20.812752
 33
17.5
  0
3DFACE
  8
11COM09-MAIN
  5
D89
 10
2.25
 20
20.8125
 30
17.6875
 11
2.25
 21
20.812752
 31
17.625
 12
2.5
 22
20.812752
 32
17.625
 13
2.75
 23
20.8125
 33
17.6875
  0
LINE
  8
11COM09-MAIN
 39
-0.25
  5
D8A
 10
2.5
 20
18.8125
 30
17.625
 11
2.5
 21
20.812752
 31
17.625
210
1.0
220
0.0
230
0.0
  0
3DFACE
  8
11COM09-MAIN
  5
D8B
 10
2.75
 20
24.3125
 30
17.6875
 11
2.75
 21
24.3125
 31
17.375
 12
2.75
 22
24.4375
 32
17.375
 13
2.75
 23
24.4375
 33
17.6875
 70
    10
  0
3DFACE
  8
11COM09-MAIN
  5
D8C
 10
2.75
 20
22.4375
 30
18.3125
 11
2.75
 21
22.4375
 31
17.6875
 12
2.75
 22
24.4375
 32
17.6875
 13
2.75
 23
24.4375
 33
18.3125
 70
     3
  0
3DFACE
  8
11COM09-MAIN
  5
D8D
 10
2.75
 20
24.4375
 30
16.625
 11
2.75
 21
23.9545
 31
16.875
 12
2.75
 22
23.9545
 32
17.375
 13
2.75
 23
24.4375
 33
17.375
 70
     5
  0
3DFACE
  8
11COM09-MAIN
  5
D8E
 10
2.75
 20
20.8125
 30
18.1875
 11
2.75
 21
22.4375
 31
18.1875
 12
2.75
 22
22.4375
 32
18.3125
 13
2.75
 23
20.8125
 33
18.3125
 70
    10
  0
3DFACE
  8
11COM09-MAIN
  5
D8F
 10
2.75
 20
20.8125
 30
16.625
 11
2.75
 21
20.8125
 31
16.875
 12
2.75
 22
23.9545
 32
16.875
 13
2.75
 23
24.4375
 33
16.625
 70
     5
  0
3DFACE
  8
11COM09-MAIN
  5
D90
 10
2.75
 20
18.5625
 30
16.625
 11
2.75
 21
18.6875
 31
17.375
 12
2.75
 22
20.8125
 32
17.375
 13
2.75
 23
20.8125
 33
16.625
 70
     5
  0
3DFACE
  8
11COM09-MAIN
  5
D91
 10
2.75
 20
18.6875
 30
17.6875
 11
2.75
 21
18.5625
 31
18.3125
 12
2.75
 22
18.5625
 32
16.625
 13
2.75
 23
18.6875
 33
17.375
 70
     5
  0
3DFACE
  8
11COM09-MAIN
  5
D92
 10
2.75
 20
18.5625
 30
18.3125
 11
2.75
 21
18.6875
 31
17.6875
 12
2.75
 22
20.8125
 32
17.6875
 13
2.75
 23
20.8125
 33
18.3125
 70
     5
  0
3DFACE
  8
11COM09-MAIN
  5
D93
 10
2.5
 20
24.1875
 30
17.5
 11
2.75
 21
24.3125
 31
17.375
 12
2.75
 22
23.9545
 32
17.375
 13
2.5
 23
23.952999
 33
17.5
  0
3DFACE
  8
11COM09-MAIN
  5
D94
 10
2.5
 20
24.1875
 30
17.625
 11
2.75
 21
24.3125
 31
17.6875
 12
2.75
 22
22.4375
 32
17.6875
 13
2.5
 23
22.436542
 33
17.625
  0
3DFACE
  8
11COM09-MAIN
  5
D95
 10
2.5
 20
18.8125
 30
17.625
 11
2.75
 21
18.6875
 31
17.6875
 12
2.75
 22
20.8125
 32
17.6875
 13
2.5
 23
20.812752
 33
17.625
  0
3DFACE
  8
11COM09-MAIN
  5
D96
 10
2.5
 20
18.8125
 30
17.5
 11
2.75
 21
18.6875
 31
17.375
 12
2.75
 22
20.8125
 32
17.375
 13
2.5
 23
20.812752
 33
17.5
  0
3DFACE
  8
11COM09-MAIN
  5
D97
 10
2.25
 20
20.8125
 30
17.497338
 11
2.75
 21
20.8125
 31
17.375
 12
2.75
 22
20.8125
 32
16.875
 13
2.5
 23
20.8125
 33
16.875
  0
3DFACE
  8
11COM09-MAIN
  5
D98
 10
2.375
 20
22.435999
 30
17.5
 11
2.75
 21
22.4375
 31
16.875
 12
2.75
 22
23.9545
 32
16.875
 13
2.375
 23
23.952999
 33
17.5
  0
3DFACE
  8
11COM09-MAIN
  5
D99
 10
2.25
 20
20.8125
 30
17.497338
 11
2.5
 21
20.8125
 31
16.875
 12
2.5
 22
22.4375
 32
16.875
 13
2.25
 23
22.4375
 33
17.497338
  0
3DFACE
  8
11COM09-MAIN
  5
D9A
 10
2.25
 20
22.4375
 30
18.1875
 11
2.25
 21
22.436542
 31
17.625
 12
2.25
 22
20.812752
 32
17.625
 13
2.25
 23
20.8125
 33
18.1875
  0
3DFACE
  8
11COM09-MAIN
  5
D9B
 10
2.75
 20
24.3125
 30
17.6875
 11
2.5
 21
24.1875
 31
17.625
 12
2.5
 22
24.1875
 32
17.5
 13
2.75
 23
24.3125
 33
17.375
  0
3DFACE
  8
11COM09-MAIN
  5
D9C
 10
2.75
 20
18.6875
 30
17.6875
 11
2.5
 21
18.8125
 31
17.625
 12
2.5
 22
18.8125
 32
17.5
 13
2.75
 23
18.6875
 33
17.375
  0
LINE
  8
11COM09-MAIN
 39
-7.0
  5
D9D
 10
2.75
 20
18.5625
 30
16.625
 11
2.75
 21
24.4375
 31
16.625
210
1.0
220
0.0
230
0.0
  0
LINE
  8
11COM09-MAIN
 39
-0.25
  5
D9E
 10
2.75
 20
20.8125
 30
16.875
 11
2.75
 21
22.4375
 31
16.875
210
1.0
220
0.0
230
0.0
  0
LINE
  8
11COM09-MAIN
 39
-7.0
  5
D9F
 10
2.75
 20
18.5625
 30
18.3125
 11
2.75
 21
18.5625
 31
16.625
210
1.0
220
0.0
230
0.0
  0
LINE
  8
11COM09-MAIN
 39
-7.0
  5
DA0
 10
2.75
 20
24.4375
 30
18.3125
 11
2.75
 21
24.4375
 31
16.625
210
1.0
220
0.0
230
0.0
  0
LINE
  8
11COM09-MAIN
 39
-0.5
  5
DA1
 10
2.75
 20
20.8125
 30
18.1875
 11
2.75
 21
22.4375
 31
18.1875
210
1.0
220
0.0
230
0.0
  0
LINE
  8
11COM09-MAIN
 39
-7.0
  5
DA2
 10
2.75
 20
18.5625
 30
18.3125
 11
2.75
 21
24.4375
 31
18.3125
210
1.0
220
0.0
230
0.0
  0
LINE
  8
11COM09-MAIN
  5
DA3
 10
2.75
 20
18.6875
 30
17.6875
 11
2.75
 21
18.6875
 31
17.375
210
1.0
220
0.0
230
0.0
  0
LINE
  8
11COM09-MAIN
  5
DA4
 10
2.75
 20
24.3125
 30
17.6875
 11
2.75
 21
24.3125
 31
17.375
210
1.0
220
0.0
230
0.0
  0
LINE
  8
11COM09-MAIN
  5
DA5
 10
2.75
 20
18.6875
 30
17.6875
 11
2.75
 21
20.8125
 31
17.6875
210
1.0
220
0.0
230
0.0
  0
LINE
  8
11COM09-MAIN
  5
DA6
 10
2.75
 20
18.6875
 30
17.375
 11
2.75
 21
20.8125
 31
17.375
210
1.0
220
0.0
230
0.0
  0
LINE
  8
11COM09-MAIN
 39
-0.5
  5
DA7
 10
2.75
 20
20.8125
 30
18.1875
 11
2.75
 21
20.8125
 31
17.6875
210
1.0
220
0.0
230
0.0
  0
LINE
  8
11COM09-MAIN
 39
-0.5
  5
DA8
 10
2.75
 20
22.4375
 30
18.1875
 11
2.75
 21
22.4375
 31
17.6875
210
1.0
220
0.0
230
0.0
  0
LINE
  8
11COM09-MAIN
  5
DA9
 10
2.75
 20
20.8125
 30
17.375
 11
2.75
 21
20.8125
 31
16.875
210
1.0
220
0.0
230
0.0
  0
LINE
  8
11COM09-MAIN
  5
DAA
 10
2.75
 20
22.4375
 30
17.6875
 11
2.75
 21
24.3125
 31
17.6875
210
1.0
220
0.0
230
0.0
  0
LINE
  8
11COM09-MAIN
 39
-0.25
  5
DAB
 10
2.5
 20
18.8125
 30
17.5
 11
2.5
 21
20.812752
 31
17.5
210
1.0
220
0.0
230
0.0
  0
LINE
  8
11COM09-MAIN
 39
-0.25
  5
DAC
 10
2.5
 20
18.8125
 30
17.625
 11
2.5
 21
18.8125
 31
17.5
210
1.0
220
0.0
230
0.0
  0
LINE
  8
11COM09-MAIN
 39
-0.25
  5
DAD
 10
2.5
 20
24.1875
 30
17.625
 11
2.5
 21
24.1875
 31
17.5
210
1.0
220
0.0
230
0.0
  0
LINE
  8
11COM09-MAIN
  5
DAE
 10
2.75
 20
23.9545
 30
17.375
 11
2.75
 21
23.9545
 31
16.875
210
1.0
220
0.0
230
0.0
  0
INSERT
  8
11COM09-MAIN
  5
DAF
  2
DISKLVR
 10
22.6224
 20
17.887521
 30
2.75
210
1.0
220
0.0
230
0.0
  0
ENDSEC
  0
EOF
